Ocean Avenue, Yellowcard (tablatura)

Autor: frankyer96 | 18503 visualizaciones

GUITAR 1
                         ----------------------------------------

Intro/Verse: "Theres a place on Ocean Avenue..." X9
e|---------------------------------------------------------------------------|
B|---------------------------------------------------------------------------|
G|---------------------------------------------------------------------------|
D|-2-2-2-2--4-4-4-4-4-4--0-0-0-0--0-0-0-0-0-0--------------------------------|
A|-2-2-2-2--4-4-4-4-4-4--0-0-0-0--0-0-0-0-0-0--------------------------------|
D|-2-2-2-2--4-4-4-4-4-4--0-0-0-0--0-0-0-0-0-0--------------------------------|
pm . . . .  . . . . . .  . . . .  . . . . . .

Chorus: "If I could find you now things would be better.." X3
e|---------------------------------------------------------------------------|
B|---------------------------------------------------------------------------|
G|---------------------------------------------------------------------------|
D|-2-2-2-2-2-2-4-4-4-4-4-4-0-0-0-0-0-0-0-0-0-0-0-0---------------------------|
A|-2-2-2-2-2-2-4-4-4-4-4-4-0-0-0-0-0-0-0-0-0-0-0-0---------------------------|
D|-2-2-2-2-2-2-4-4-4-4-4-4-0-0-0-0-0-0-0-0-0-0-0-0---------------------------|


Interlude/Verse: (Repeat verse X5)


Repeat Chorus


Bridge: X2
e|---------------------------------------------------------------------------|
B|---------------------------------------------------------------------------|
G|-2-2-2-2--2-2-2-2-2-2------------------------------------------------------|
D|-2-2-2-2--2-2-2-2-2-2------------------------------------------------------|
A|-0-0-0-0--0-0-0-0-0-0------------------------------------------------------|
D|---------------------------------------------------------------------------|


Bridge Cont'd: X2
e|---------------------------------------------------------------------------|
B|---------------------------------------------------------------------------|
G|-2-2-2-2-2-2-2-2-2-2-2-2-2-2-2-2-------------------------------------------|
D|-2-2-2-2-2-2-2-2-2-2-2-2-2-2-2-2-4-4-4-4-4-4-4-4-4-4-4-4-4-4-4-4-----------|
A|-0-0-0-0-0-0-0-0-0-0-0-0-0-0-0-0-4-4-4-4-4-4-4-4-4-4-4-4-4-4-4-4-----------|
D|---------------------------------4-4-4-4-4-4-4-4-4-4-4-4-4-4-4-4-----------|

e|---------------------------------------------------------------------------|
B|---------------------------------------------------------------------------|
G|---------------------------------------------------------------------------|
D|-2-2-2-2-2-2-2-2-6-6-6-6-7-7-7-7-0-0-0-0-0-0-0-0-0-0-0-0-0-0-0-0-----------|
A|-2-2-2-2-2-2-2-2-x-x-x-x-x-x-x-x-0-0-0-0-0-0-0-0-0-0-0-0-0-0-0-0-----------|
D|-2-2-2-2-2-2-2-2-6-6-6-6-7-7-7-7-0-0-0-0-0-0-0-0-0-0-0-0-0-0-0-0-----------|


Repeat Chorus


Outro:  X2
e|---------------------------------------------------------------------------|
B|---------------------------------------------------------------------------|
G|-4-4-4-4--6-6-6-6-6-6--2-2-2-2--2-2-2-2-2-2--------------------------------|
D|-2-2-2-2--4-4-4-4-4-4--0-0-0-0--0-0-0-0-0-0--------------------------------|
A|-2-2-2-2--4-4-4-4-4-4--0-0-0-0--0-0-0-0-0-0--------------------------------|
D|-2-2-2-2--4-4-4-4-4-4--0-0-0-0--0-0-0-0-0-0--------------------------------|


Outro Cont'd:
e|---------------------------------------------------------------------------|
B|---------------------------------------------------------------------------|
G|---------------------------------------------------------------------------|
D|-7--7--2--0----------------------------------------------------------------|
A|-5--4--0--0----------------------------------------------------------------|
D|----------0----------------------------------------------------------------|






                                       GUITAR 2
                              ----------------------------



Intro: No Guitar 2


Verse: "Night"                 "Stayin' up all night"
e|---------------------------------------------------------------------------|
B|---------------------------------------------------------------------------|
G|---------------------------------------------------------------------------|
D|--/6----6--7----7----4\------/6-----6--7-----7-----4--2--4\----------------|
A|------7-------0----0-------------7--------0-----0--------------------------|
D|---------------------------------------------------------------------------|



Verse Cont'd: "Sleepin all day stayin up all night"   (Repeat what you do above
)
Guitar 3
e|---------------------------------------------------------------------------|
B|-------------------7---10----------------------------7--5--7---------------|
G|---------------------------------------------------------------------------|
D|--/6----6--7----7------------/6----6--7------7-----------------------------|
A|------7-------0------------------7--------0-----0--------------------------|
D|---------------------------------------------------------------------------|


Chorus: (Same as Guitar 1)


Interlude: (Repeat first half of the Verse)


Verse: :There's a peice of you thats here with me" X2
e|---------------------------------------------------------------------------|
B|---------------------------------------------------------------------------|
G|---------------------------------------------------------------------------|
D|-6-6-6-6--7-7-7-7-7-7--4-4-4-4--4-4-4-4-4-4--------------------------------|
A|---------------------------------------------------------------------------|
D|---------------------------------------------------------------------------|
pm . . . .  . . . . . .  . . . .  . . . . . .


Repeat Verse Cont'd


Repeat Chorus


Bridge: No Guitar 2


Bridge Cont'd: (Do that until the chorus)
e|---------0-----------------------------------------------------------------|
B|------0-----0--------------------------------------------------------------|
G|-1h2-----------------------------------------------------------------------|
D|---------------------------------------------------------------------------|
A|---------------------------------------------------------------------------|
D|---------------------------------------------------------------------------|


Repeat Chorus


Outro: Same as Guitar 1


Outro Cont'd: Same as Guitar 1
Calificar esta versión:
Aviso: Este fichero es trabajo propio de su transcriptor y representa su interpretación personal de la canción. El material contenido en esta página es para exclusivo uso privado, por lo que se prohibe su reproducción o retransmisión, así como su uso para fines comerciales.