Light And Sounds, Yellowcard (tablatura)

Autor: frankyer96 | 46010 visualizaciones

Intro(Repeat 4x) 
e|---------------------------------------------------------------------------| 
B|---------------------------------------------------------------------------| 
G|---------------------------------------------------------------------------| 
D|---99--0h4-55--4-5-77--5-7-99--5-4-----99--0h4-55--4-5-22--0-2/77--5-7-----| 
A|---99--0h4-55--4-5-77--5-7-99--5-4-----99--0h4-55--4-5-22--0-2/77--5-7-----| 
D|---99--0h4-55--4-5-77--5-7-99--5-4-----99--0h4-55--4-5-22--0-2/77--5-7-----| 
 
Verse 1 (Repeat 4x) 
"Hello you, how was the rest?.." 
e|---------------------------------------------------------------------------| 
B|---------------------------------------------------------------------------| 
G|---------------------------------------------------------------------------| 
D|---9999-777-5-55-44-22-0-----99-7-99-7-5-55-44-22-0------------------------| 
A|---9999-777-5-55-44-22-0-----99-7-99-7-5-55-44-22-0------------------------| 
D|---9999-777-5-55-44-22-0-----99-7-99-7-5-55-44-22-0------------------------| 
 
Pre-Chorus (Repeat 3x) 
"Nobody's there.." 
e|---------------------------------------------------------------------------| 
B|---------------------------------------------------------------------------| 
G|---------------------------------------------------------------------------| 
D|---44p0--99--7--5~---------------------------------------------------------| 
A|---44p0--99--7--5~---------------------------------------------------------| 
E|---44p0--99--7--5~---------------------------------------------------------| 
 
Chorus (Repeat 2x) 
"Stop, turn.." 
e|---------------------------------------------------------------------------| 
B|---------------------------------------------------------------------------| 
G|----77777777---------------------------------------------------------------| 
D|----77777777--44444444--99999999-----6666--5555----------------------------| 
A|----55555555--44444444--99999999-----6666--5555----------------------------| 
E|--------------44444444--99999999-----6666--5555----------------------------| 
 
Verse 2 (Repeat 4x) 
"Make it new, but stay in the lines.." 
e|---------------------------------------------------------------------------| 
B|---------------------------------------------------------------------------| 
G|---------------------------------------------------------------------------| 
D|---9999-777-5-55-44-22-0-----99-7-99-7-5-55-44-22-0------------------------| 
A|---9999-777-5-55-44-22-0-----99-7-99-7-5-55-44-22-0------------------------| 
D|---9999-777-5-55-44-22-0-----99-7-99-7-5-55-44-22-0------------------------| 
 
Pre-Chorus (Repeat 2x) 
"Nobody's there.." 
e|---------------------------------------------------------------------------| 
B|---------------------------------------------------------------------------| 
G|---------------------------------------------------------------------------| 
D|---44p0--99--7--5~---------------------------------------------------------| 
A|---44p0--99--7--5~---------------------------------------------------------| 
E|---44p0--99--7--5~---------------------------------------------------------| 
 
Bridge (Same as intro: repeat 7x) 
"I've got a way to work this out.." 
e|---------------------------------------------------------------------------| 
B|---------------------------------------------------------------------------| 
G|---------------------------------------------------------------------------| 
D|---99--0h4-55--4-5-77--5-7-99--5-4-----99--0h4-55--4-5-22--0-2/77--5-7-----| 
A|---99--0h4-55--4-5-77--5-7-99--5-4-----99--0h4-55--4-5-22--0-2/77--5-7-----| 
D|---99--0h4-55--4-5-77--5-7-99--5-4-----99--0h4-55--4-5-22--0-2/77--5-7-----| 
 
Bridge (On 8th measure) 
"I've got a way!" 
e|---------------------------------------------------------------------------| 
B|---------------------------------------------------------------------------| 
G|---------------------------------------------------------------------------| 
D|---99x---------------------------------------------------------------------| 
A|---99x---------------------------------------------------------------------| 
E|---99x---------------------------------------------------------------------| 
 
Outro (Same as Chorus: Repeat 4x) 
"Stop, turn.." 
e|---------------------------------------------------------------------------| 
B|---------------------------------------------------------------------------| 
G|----77777777---------------------------------------------------------------| 
D|----77777777--44444444--99999999-----6666--5555----------------------------| 
A|----55555555--44444444--99999999-----6666--5555----------------------------| 
E|--------------44444444--99999999-----6666--5555----------------------------| 
 
| /  slide up 
| \  slide down 
| h  hammer-on 
| p  pull-off 
| ~  vibrato 
| +  harmonic 
| x  Mute note
Calificar esta versión:
Aviso: Este fichero es trabajo propio de su transcriptor y representa su interpretación personal de la canción. El material contenido en esta página es para exclusivo uso privado, por lo que se prohibe su reproducción o retransmisión, así como su uso para fines comerciales.