Breathing, Yellowcard (tablatura)

Autor: xxfapulentoxx | 14639 visualizaciones

Yellowcard – Breathing 
 
Intro – palm muted 
e|---------------------------------------------------------------------------| 
B|---------------------------------------------------------------------------| 
G|------555-------------------555--------------------------------------------| 
D|--222-555-444-55555-44--222-555-444-5555-----------------------------------| 
A|--222-333-444-55555-44--222-333-444-5555-----------------------------------| 
E|--000-----222-33333-22--000-----222-3333-----------------------------------| 
 
Intro cont. not pm 
 
e|---------------------------------------------------------------------------| 
B|---------------------------------------------------------------------------| 
G|------555-------------------555--------------------------------------------| 
D|--222-555-444-55555-44--222-555-444-5555-4---------------------------------| 
A|--222-333-444-55555-44--222-333-444-5555-4---------------------------------| 
E|--000-----222-33333-22--000-----222-3333-2---------------------------------| 
 
e|---------------------------------------------------------------------------| 
B|---------------------------------------------------------------------------| 
G|--7/9-97-7/9--11/1212/1412-11-7-7/9--9-7-4-------------------------------| 
D|--x-x-x-x-x-x--x--x-x--x--x--x--x-x-x--x-x-x-------------------------------| 
A|--5/7-75-5/7--9-/1010/1210-9--5-5/7--7-5-2-------------------------------| 
E|---------------------------------------------------------------------------| 
 
Verse 
 
e|---------------------------------------------------------------------------| 
B|---------------------------------------------------------------------------| 
G|--55-5-5-77-7-7---------------------55-5-5-77-7-7-------------44-4---------| 
D|--55-5-5-77-7-7-22-2-2-2-22-5-55-4--55-5-5-77-7-7-22-2-2-22-2-44-4---------| 
A|--33-3-3-55-5-5-22-2-2-2-22-5-55-4--33-3-3-55-5-5-22-2-2-22-2-22-2---------| 
E|----------------00-0-0-0-00-3-33-2----------------00-0-0-00-0--------------| 
Pm  ..     ..     ..       ..   ..    ..     ..     ..     ..   .. 
 
e|---------------------------------------------------------------------------| 
B|---------------------------------------------------------------------------| 
G|--55-5-55-5-77-7-77-7----------------4-44-5--55-5-55-5-77-7-77-7-----------| 
D|--55-5-55-5-77-7-77-7-22-2-22-2-2-22-4-44-5--55-5-55-5-77-7-77-7-----------| 
A|--33-3-33-3-55-5-55-5-22-2-22-2-2-22-2-22-3--33-3-33-3-55-5-55-5-----------| 
E|----------------------00-0-00-0-0-00---------------------------------------| 
Pm  ..   ..   ..   ..   ..   ..     ..   ..    ..   ..   ..   .. 
 
e|---------------------------------------------------------------------------| 
B|---------------------------------------------------------------------------| 
G|---------------------------------------------------------------------------| 
D|--2-22-2-22-2-2------------------------------------------------------------| 
A|--2-22-2-22-2-2------------------------------------------------------------| 
E|--0-00-0-00-0-0------------------------------------------------------------| 
Pm    ..   ..  
 
Chorus  
 
e|---------------------------------------------------------------------------| 
B|---------------------------------------------------------------------------| 
G|--5555555555555555-7777777777777777----------------------------------------| 
D|--5555555555555555-7777777777777777-22-222-0-22-222-0----------------------| 
A|--3333333333333333-5555555555555555-22-222-0-22-222-0----------------------| 
E|------------------------------------00-000-0-00-000-0----------------------| 
 
e|---------------------------------------------------------------------------| 
B|---------------------------------------------------------------------------| 
G|--7/9-97-7/9--11/1212/1412-11-7-7/9--9-7-4-------------------------------| 
D|--x-x-x-x-x-x--x--x-x--x--x--x--x-x-x--x-x-x-------------------------------| 
A|--5/7-75-5/7--9-/1010/1210-9--5-5/7--7-5-2-------------------------------| 
E|---------------------------------------------------------------------------| 
 
Repeat verse 
Repeat Chorus 
 
Bridge 
 
e|---------------------------------------------------------------------------| 
B|---------------------------------------------------------------------------| 
G|--99999-7-99999-7-99999-7-99999--------------------------------------------| 
D|--99999-7-99999-7-99999-7-99999--------------------------------------------| 
A|---------------------------------------------------------------------------| 
E|---------------------------------------------------------------------------| 
 
e|---------------------------------------------------------------------------| 
B|---------------------------------------------------------------------------| 
G|------555-------------------555--------------------------------------------| 
D|--222-555-444-55555-44--222-555-444-5555-4---------------------------------| 
A|--222-333-444-55555-44--222-333-444-5555-4---------------------------------| 
E|--000-----222-33333-22--000-----222-3333-2---------------------------------| 
 
e|---------------------------------------------------------------------------| 
B|---------------------------------------------------------------------------| 
G|------555-------------------555--------------------------------------------| 
D|--222-555-444-55555-44--222-555-444-5555-4---------------------------------| 
A|--222-333-444-55555-44--222-333-444-5555-4---------------------------------| 
E|--000-----222-33333-22--000-----222-3333-2---------------------------------| 
 
e|--0-0000-4-4444-3-3333-333-7-0-0000--------------4-3----------------------| 
B|--1-1111-5-5555-0-0000-000----1-1111-3-3333-1-111-5-0----------------------| 
G|--0-0000-4-4444-0-0000-000----0-0000-4-4444-2-222-4-0----------------------| 
D|-------------------------------------4-4444-2-222--------------------------| 
A|---------------------------------------------------------------------------| 
E|---------------------------------------------------------------------------| 
 
e|--0-0000-4-4444-3-3333-333-7-0-0000-4-4444-3-3333-------------------------| 
B|--1-1111-5-5555-0-0000-000----1-1111-5-5555-0-0000-------------------------| 
G|--0-0000-4-4444-0-0000-000----0-0000-4-4444-0-0000-------------------------| 
D|---------------------------------------------------------------------------| 
A|---------------------------------------------------------------------------| 
E|---------------------------------------------------------------------------| 
 
Repeat Chorus  



--------------------------------------------------------------------------------

Calificar esta versión:
Aviso: Este fichero es trabajo propio de su transcriptor y representa su interpretación personal de la canción. El material contenido en esta página es para exclusivo uso privado, por lo que se prohibe su reproducción o retransmisión, así como su uso para fines comerciales.