All Returns, Wolf People (tablatura)

Autor: EdgarPrz | 31042 visualizaciones



Bueno, esta cancion la saque con acustica, no se si se oira, igual en electrica....

Bajo: Intro
e|--------------------------------------------------------------|
B|--------------------------------------------------------------|
G|--------------------------------------------------------------|
D|-2-2--2-5--------4-4--4-7-------6-6--6-9-------8-8--8-11------|
A|----------2-5-------------4-7------------6-9-------------8-11-|
E|--------------------------------------------------------------|

e|--------------------------------------------------------------|
B|--------------------------------------------------------------|
G|--------------------------------------------------------------|
D|-10-10--10-13---------12-12--12-15---------14-14-14-14-14~~---|
A|---------------10-13----------------12-15---------------------|
E|--------------------------------------------------------------|

Intro Guitarra:
e|-----------10-8-7---------------------------------------------|
B|-10-12-13---------10-8--10-10h12-10---------------------------|
G|-------------------------------------7-9h10--12-10/9----------|
D|----------------------------------------------------12-10-12s1|
A|--------------------------------------------------------------|
E|--------------------------------------------------------------|
(x3 veces)

e|--------------------------------------------------------------|
B|--------------------------------------------------------------|
G|--------------------------------------------------------------|
D|-12--12-14--10-12--9-10--7-9--7~~~~---------------------------|
A|--------------------------------------------------------------|
E|--------------------------------------------------------------|

e|--------------------------------------------------------------|
B|--------------------------------------------------------------|
G|-7h8-7-7-------xxx-xxx---7h8-7-7--------xxx-xxx---------------|
D|------8--8-7---xxx-xxx--------8--8-7----xxx-xxx---------------|
A|--------------------------------------------------------------|
E|--------------------------------------------------------------|

e|--------------------------------------------------------------|
B|--------------------------------------------------------------|
G|-7h8-7-7-------xxx-xxx----------------------------------------|
D|------8--8-8---xxx-xxx---7h8-7-7-8s7----xxx-xxx---------------|
A|------------------------------8---------xxx-xxx---------------|
E|--------------------------------------------------------------|

e|--------------------------------------------------------------|
B|--------------------------------------------------------------|
G|-7h8-7-7---------xxx-xxx---7h8-7-7-----------xxx-xxx----------|
D|------8--8-8h9---xxx-xxx--------8--8-8h10----xxx-xxx----------|
A|--------------------------------------------------------------|
E|--------------------------------------------------------------|

e|--------------------------------------------------------------|
B|--------------------------------------------------------------|
G|--------------------------------------------------------------|
D|-7h8-7-7-8h10---xxx-xxx---7h8-7-7-----------------------------|
A|------8---------xxx-xxx--------8--8-7~~~~~~-------------------|
E|--------------------------------------------------------------|





Comentarios del colaborador: Cualquier error comentan

Calificar esta versión:
Aviso: Este fichero es trabajo propio de su transcriptor y representa su interpretación personal de la canción. El material contenido en esta página es para exclusivo uso privado, por lo que se prohibe su reproducción o retransmisión, así como su uso para fines comerciales.