Destroy, Windir (tablatura)

Autor: sabeee | 15777 visualizaciones



---------------------------------------------------------- 2x
----------------------------------------------------------
----------------------------------------------------------
-3--3-3-3--3-3-3-3-3--3-3---------------------------------
-3--3-3-3--3-3-3-3-3--3-3---------------------------------
-1--1-1-1--1-1-1-1-1--1-1--343434343434-------------------
      
---------------------------------------------------------- 2x
----------------------------------------------------------
----------------------------------------------------------
-2--2-2-2--2-2-2-2-2--2-2---------------------------------
-2--2-2-2--2-2-2-2-2--2-2---------------------------------
-0--0-0-0--0-0-0-0-0--0-0--676767676767-------------------     

------------------------------------------------|      2x
------------------------------------------------|
------------------------------------------------|
---------------------2--3-4---------------------|
-3--6--3--5-6--3--6--2--1-2---------------------|
-1--4--1--3-4--1--4-----------------------------|

------------------------------------------------|      2x
------------------------------------------------|
------------------------------------------------|
--------------------2--3-4----------------------|
-3--6--3--5-6--3-5--2--1-2----------------------|
-1--4--1--3-4--1-3------------------------------|

-------------------------------|           4x
-------------------------------|
-------------------------------|
----6-----5-6-----6-6--8-9-----|
-3--8--3--6-8--3--8-7--7-7-----|
-1-----1-------1---------------|

-------------------------------|           4x
-------------------------------|
-------------------------------|
----9-----10-11----9--6--10-11-|
-8--7--8--8--9--8--7--8--8--9--|
-6-----6--------6--------------|

-------------------------------|             6x
-------------------------------|
-------------------------------|
-10------10--11----------------|
-8---11--8---9---13------------|
-----9-----------11------------|

--------------------------------------------------------------------------------------------------------------------------------
-----------------------------------------------------------------6---------------6------6-7-6-5-6-------------------------------
-8-333333333333--8-3333-8-9-8-7-8-333333333333---------------------111111111111----1111-----------111111111111444444447777777---

----------------------|
----------------------|
----------------------|
-4-~------------------|
-6-~------------------|

-------------------------------------------|      6x
-------------------------------------------|
-------------------------------------------|
-------------------------------------------|
-4-4--4-4--4-4--4-4--3-3--3-3--3-3--3-3----|
-6-6--6-6--4-4--4-4--1-1--1-1--4-4--4-4----|

------------------|          6x
------------------|
------------------|
-------6--10------|
-4--4--8--11------|
-6--4-------------|

-----------------------------------|        2x
-----------------------------------|
-----------------------------------|
-----------------6-6---10-10-------|
-4-4--4-4--4444--8-8---11-11-------|
-6-6--4-4--4444--------------------|





Calificar esta versión:
Aviso: Este fichero es trabajo propio de su transcriptor y representa su interpretación personal de la canción. El material contenido en esta página es para exclusivo uso privado, por lo que se prohibe su reproducción o retransmisión, así como su uso para fines comerciales.