Corazon Mio, Willy Noriega (acordes)

Autor: LordFenix | 23272 visualizaciones

abmdemfsosfsosmg


bueno despues de haver visto tablaturas de esta cacion muy   
   malas cogi una y le corregi algunos acordes para que seune   
   mejor.
   que lo sidfruten
      Intro 

    e|-------5-----5---5--3-2-2-3----------------|   
    B|-----3-----3---3-------------0----0--3--7--|
    G|---2-----2---------------------------------|
    D|-------------------------------------------|  
    A|-0-----------------------------------------| 
    E|-------------------------------------------|


    e|--3-------3/3----3-2-0?0---------0-|
    B|--------3------3------3---2---2-3--|
    G|-----4-----------------------------|
    D|-----------------------------------|
    A|-----------------------------------|
    E|-----------------------------------|


       Parte 1

    D                      G
    No hay corazón en este mundo
    Em        A                 D
    que pueda amarte mas que el mío
    D                     G
    late por ti para quererte..
    Em        A            D
    y no sentirse tan vacío..
      Bm       Em      A       D
    corazón..corazón..corazón mío..

    e|-------5-----5---5--3-2-2-3------------0--|
    B|-----3-----3---3-------------0----2--3----|
    G|---2-----2--------------------------------|
    D|------------------------------------------|
    A|-0----------------------------------------|
    E|------------------------------------------|



      Parte 1
    No hay corazón sobre la tierra
    mas terco que este loco amigo..
    vive empeñado en que lo quieras
    y que le entregues tu cariño
    corazón..corazón..corazón mío...

      Parte 2

    G      A         F#m
    Ignora él la realidad
         F#              Bm
    y mi razón le quiere hablar
        A        G
    le dice que no...
                A                  D
    que no es verdad que tu no le amas...
     G       F#             Bm
    pero el insiste y no le escucha
     A                       D
    y terco así sigue en la lucha
     A                     G
    fiel a su causa a su ideal..

      Parte 1
    Mi corazón pobre inocente...
    nunca aprendió a decir mentiras
    dice que tu sigues presente..
    y que eres parte de su vida
    corazón..corazón... loco suicida.

      Parte 2
    Voy a dejar al corazón
    que siga con su devoción
    y a mi razón le pediré
    que lo perdone...
    por que abriría en él la herida
    si tu te escapas de su vida
    te necesita entiéndelo..
    e|-------5-----5---5--3-2-2-3------------0--|
    B|-----3-----3---3-------------0----2--3----|
    G|---2-----2--------------------------------|
    D|------------------------------------------|
    A|-0----------------------------------------|
    E|------------------------------------------|

       Parte 1
    No hay corazón
    en este mundo que pueda
    amarte mas que el mío
    late por ti para quererte
    y no sentirse tan vacío
    corazón..corazón..corazón mío...





Comentarios del colaborador: http://lacuerda.net/tabs/w/willy_noriega/corazon-3.shtml

Calificar esta versión:
Aviso: Este fichero es trabajo propio de su transcriptor y representa su interpretación personal de la canción. El material contenido en esta página es para exclusivo uso privado, por lo que se prohibe su reproducción o retransmisión, así como su uso para fines comerciales.