All I Want, All I Need, Whitesnake (tablatura)

Autor: Cabeza de Radio | 33526 visualizaciones

El intro es una combinacion de sonidos de guitarra y violin
 
e|--------------------------|--------------------------|
B|--------------------------|--------------------------|
G|--------------------------|--------------------------|
D|---9~~--------------------|----9~~-------------------|
A|--------------------------|--------------------------|
E|--------------------------|--------------------------|

e|--------------------------|--------------------------|
B|--------------------------|--------------------------|
G|-----5h7h9--5h7-----------|-------5h7h9--5h7---------|
D|----------------7---------|-----7------------7-------|
A|--------------------------|--------------------------|
E|--------------------------|--------------------------|

e|--------------------------|--------------------------|
B|--------------------------|--------------------------|
G|-----5h7h9--5h7-----------|-------5h7h9--5h7--7~~----|
D|---7------------7---------|-----7--------------------|
A|--------------------------|--------------------------|
E|--------------------------|--------------------------|




Esto es con el limpio e|--------------------------|--------------------------| B|--------------------------|--------------------------| G|------0-5-0-4-0-----------|------0-5-0-4-------------| D|----2---------------------|----2---------------------| A|--0-----------------------|--0-----------------------| E|--------------------------|--------------------------| e|--------------------------|--------------------------| B|--------------------------|--------------------------| G|------0-5-0-4-0-----------|------0-5-0-4-------------| D|----2---------------------|----2---------------------| A|--0-----------------------|--0-----------------------| E|--------------------------|--------------------------| esto hace la guitarra principal despues de que termine de cantar la primera parte e|---7~~--------------------| B|--------------------------| G|--------------------------| D|--------------------------| A|--------------------------| E|--------------------------|

Comentarios del colaborador: no la logre terminar por tiempo pero luego la concluyo

Calificar esta versión:
Aviso: Este fichero es trabajo propio de su transcriptor y representa su interpretación personal de la canción. El material contenido en esta página es para exclusivo uso privado, por lo que se prohibe su reproducción o retransmisión, así como su uso para fines comerciales.