Icky Thump, White Stripes (tablatura)

Autor: oasis360 | 18511 visualizaciones

Main Riff.
e|---------------------------------|
B|---------------------------------|
G|--------------------9--7---9-----|
D|--------------------9--7---9-----|   x8
A|2--2--2--2--2--2----7--5---7-----|
E|0--0--0--0--0--0-----------------|
  x  x  x  x  x  x  


"Chorus" riff
e|-----------------------------------------------------------------------|
B|-----------------------------------------------------------------------|
G|-----------------------------------------------------------------------|
D|/7--5--4--0-------------2--5--2----------------------------------------|
A|-------------5--4--0----2--5--2----------------------------------------|
E|------------------------0--3--0----------------------------------------|

e|-----------------------------------------------------------------------|
B|-----------------------------------------------------------------------|
G|------------/7--6------------------------------------------------------|
D|/7--5--4--0--------7----2--5--2----------------------------------------|
A|------------------------2--5--2----------------------------------------|
E|------------------------0--3--0----------------------------------------|

e|-----------------------------------------------------------------------|
B|-----------------------------------------------------------------------|
G|-----------------------------------------------------------------------|
D|/7--5--4--0-------------2--5--2----------------------------------------|
A|-------------5--4--0----2--5--2----------------------------------------|
E|------------------------0--3--0----------------------------------------|

e|-----------------------------------------------------------------------|
B|-----------------------------------------------------------------------|
G|--------------7--9--7--9-----------------------------------------------|
D|/7--5--4--0---7--9--7--9-----------------------------------------------|
A|--------------5--7--5--7-----------------------------------------------|
E|--------------------------(0)------------------------------------------|



 Interlude 
e|-----------------------------------------------------------------------|
B|-----------------------------------------------------------------------|
G|-----------------------------------------------------------------------|
D|12--11--------14--13--------15--14--------17--16-----------------------|
A|--------12------------14------------15------------17-------------------|
E|-----------------------------------------------------------------------|




Order:
Main riff	x8
Chorus riff	x2
Main riff	x8
Main riff       x7
Chorus riff     x2
Interlude	x4
Main riff	x8
Chorus riff	x1 (1st & 2nd line only)
Main riff	x6
Chorus riff	x4



| /  slide up
|   slide down
| h  hammer-on
| p  pull-off
| ~  vibrato
| +  harmonic
| x  Mute note
Calificar esta versión:
Aviso: Este fichero es trabajo propio de su transcriptor y representa su interpretación personal de la canción. El material contenido en esta página es para exclusivo uso privado, por lo que se prohibe su reproducción o retransmisión, así como su uso para fines comerciales.