Blue Orchid, White Stripes (tablatura)

Autor: The Pretender | 25327 visualizaciones

~ = Vibrato
p = pull off

Verse
e|-----------------------------------------------|
B|-------------------------------------------8---|
G|--------------------------------------7-10-----|
D|------------8--------------------8-10----------|
A|-10----8-10---8-------10----8-10---------------|
E|-----------------------------------------------|

Chorus
e|----------------------------------------------------------------|
B|----------------------------------------------------------------|
G|----------------------------------------------------------------|
D|-------12p10-----------12p10-----------12p10--------------------|
A|-10----------13--------------13-10~-----------13------------10~-|
E|---------------13-------------------------------13-13-13-13-----|

                           OR

e|----------------------------------------------------------------|
B|----------------------------------------------------------------|
G|----------------------------------------------------------------|
D|-------12p10-8----------12p10-8----------12p10-8----------------|
A|-10------------8----------------10~--------------8-8-8-8-10~----|
E|----------------------------------------------------------------|
Calificar esta versión:
Aviso: Este fichero es trabajo propio de su transcriptor y representa su interpretación personal de la canción. El material contenido en esta página es para exclusivo uso privado, por lo que se prohibe su reproducción o retransmisión, así como su uso para fines comerciales.