Was A Time, Whigfield (acordes)

Autor: sonac32 | 14746 visualizaciones

csosmcmgsosmgm
intro:

Tatatata - Cm-Cm-Cm-Gm-
Cm-Cm-Cm-Gm-
         Tatatata 
Cm-Cm-Cm-Gm-
Cm-Cm-Cm-Gm
         Tatatata 
                     
    Cm         Cm         Cm        Gm
6-|------------------------------------------
5-|------------------------------------------
4-|------------------------------------------
3-|-12-12-12---12-12-12---12-12-12-----------
2-|--------------------------------11-11-----
1-|----------8----------8--------------------
                                               [X4]
    Cm         Cm         Cm       Gm
6-|------------------------------------------|
5-|------------------------------------------|
4-|------------------------------------------|
3-|-12-12-12---12-12-12---12-12-12------10---|
2-|--------------------------------11-8----8-|
1-|----------8----------8--------------------|

Cm          Cm       Cm         Gm
Was a time when my life was mine 
Cm         Cm        Cm       Gm       
Seemed to follow along the line 
Cm         Cm       Cm       Gm
Now I'm here, a different time 
Cm        Cm          Cm         Gm
I long for when your love was mine 

Cm        Cm      Cm       Gm
Follow what there is to find 
Cm        Cm         Cm          Gm
Looking out for all those hidden signs 
Cm       Cm      Cm       Gm
Never wanted a lonely time 
Cm       Cm      Cm        Gm
Too bad I can't read your mind 

    Cm         Cm         Cm        Gm
6-|------------------------------------------
5-|------------------------------------------
4-|------------------------------------------
3-|-12-12-12---12-12-12---12-12-12-----------
2-|--------------------------------11-11-----
1-|----------8----------8--------------------
                                               [X2]
    Cm         Cm         Cm       Gm
6-|------------------------------------------|
5-|------------------------------------------|
4-|------------------------------------------|
3-|-12-12-12---12-12-12---12-12-12------10---|
2-|--------------------------------11-8----8-|
1-|----------8----------8--------------------|
                                    Tatatata 

[cambio de acordes con cambio de tono]

C#m         C#m      C#m     G#m  
Was a time when my life was mine 
C#m         C#m       C#m        G#m    
Seemed to be, go and break what's fine 
C#m       C#m      C#m      G#m
Now I'm here and full of tears 
C#m         C#m       C#m     G#m
I long for when I held you near 

    C#m        C#m        C#m      G#m
6-|------------------------------------------
5-|------------------------------------------
4-|------------------------------------------
3-|-13-13-13---13-13-13---13-13-13-----------
2-|--------------------------------12-12-----
1-|----------9----------9--------------------
                                               [X4]
    C#m        C#m        C#m      G#m
6-|------------------------------------------|
5-|------------------------------------------|
4-|------------------------------------------|
3-|-13-13-13---13-13-13---13-13-13------11---|
2-|--------------------------------12-9----9-|
1-|----------9----------9--------------------|
                                    Tatatata

Follow what there is to find 
Looking out for all those hidden signs 
Never wanted a lonely time 
Too bad I can't read your mind 

C#m-C#m-C#m-G#m [X3]

C#m      C#m       C#m      
Too bad I cant read your mind 


    C#m        C#m        C#m      G#m
6-|------------------------------------------
5-|------------------------------------------
4-|------------------------------------------
3-|-13-13-13---13-13-13---13-13-13-----------
2-|--------------------------------12-12-----
1-|----------9----------9--------------------
                                               [X1]
    C#m        C#m        C#m      G#m
6-|------------------------------------------|
5-|------------------------------------------|
4-|------------------------------------------|
3-|-13-13-13---13-13-13---13-13-13------11---|
2-|--------------------------------12-9----9-|
1-|----------9----------9--------------------|

[aqui es cuando entra la vos]

    C#m        C#m        C#m      G#m
             time       time       was a time
6-|------------------------------------------
5-|------------------------------------------
4-|------------------------------------------
3-|-13-13-13---13-13-13---13-13-13-----------
2-|--------------------------------12-12-----
1-|----------9----------9--------------------
                                               [X3]
    C#m        C#m        C#m      
             time       time        read your mind
6-|------------------------------------------|
5-|------------------------------------------|
4-|------------------------------------------|
3-|-13-13-13---13-13-13---13-13-13-----------|
2-|------------------------------------------|
1-|----------9----------9--------------------|
                                     
Calificar esta versión:
Aviso: Este fichero es trabajo propio de su transcriptor y representa su interpretación personal de la canción. El material contenido en esta página es para exclusivo uso privado, por lo que se prohibe su reproducción o retransmisión, así como su uso para fines comerciales.