Teenage Dirtbag, Wheatus (tablatura)

Autor: Rene Rivera Rodriguez | 20443 visualizaciones

Intro/Verse (Clean)

e|-0------X-X--0------X-X--0------X-X--0-----|
B|-0------X-X--0------X-X--0------X-X--0-----|
G|--------X-X---------X-X---------X-X--------| PLAY THIS 5
D|--------X-X---------X-X---------X-X--------| TIMES
A|--------X-X----2-2--X-X---------X-X----0-0-|
E|---0-0--X-X---------X-X----0-0--X-X--------|

e|-0------X-X--0------X-X--0------X-X--0-----|
B|-0------X-X--0------X-X--0------X-X--0-----|
G|--------X-X---------X-X---------X-X--------| THEN THIS 3 
D|--------X-X---------X-X---------X-X--------| TIMES
A|---4-4--X-X----0-0--X-X----2-2--X-X----2-2-|
E|--------X-X---------X-X---------X-X--------|

Chorus (Distortion)

e|---------------|---------| |------------------| 
B|---------------|---------| |------------------|
G|------2-2--4-4-|---------| PLAY THIS |------------------| 
D|-2-2--2-2--4-4-|---6-----| 3 TIMES |---6--------2---4-| 
A|-2-2--0-0--2-2-|-4-----6-| |-4-----6--0---2---|
E|-0-0-----------|-----4---| |-----4------------|

Bridge (Distortion)

e|---------------------------------------------|
B|---------------------------------------------|
G|-----1-2------1-2------1-2-------------------| PLAY THIS 
D|-2-2-2-2--2-2-2-2--2-2-2-2----6--------2---4-| TWICE 
A|-2-2-2-0--2-2-2-2--2-2-2-2--4-----6--0---2---|
E|-0-0------0-0------0-0----------4------------|

Outro (Distortion)

e|----------------------------|
B|----------------------------| 
G|---------4-4----------------|
D|-2-2-X-X-4-4-X-X-2-2--------|
A|-2-2-X-X-2-2-X-X-2-2--------|
E|-0-0-X-X-----X-X-0-0--5-4-5-|

e|-------------------------------------0-|
B|-------------------------------------0-|
G|---------4-4-------------------------1-|
D|-2-2-X-X-4-4-X-X-2-2-X---------------2-|
A|-2-2-X-X-2-2-X-X-2-2-X---------------2-|
E|-0-0-X-X-----X-X-0-0-X--5-4-2-4-2/1--0-|

Song Layout

Intro/Verse (clean)
Chorus (dist.)
Verse (clean)
Chorus (dist.)
Bridge (dist.)
Verse (clean)
Chorus (dist. and palm muted)
Bridge (dist.)
Outro (dist.)

Comentarios del colaborador: http://www.guitabs.net/tabs/w/wheatus/teenage_dirtbag/56716.html

Calificar esta versión:
Aviso: Este fichero es trabajo propio de su transcriptor y representa su interpretación personal de la canción. El material contenido en esta página es para exclusivo uso privado, por lo que se prohibe su reproducción o retransmisión, así como su uso para fines comerciales.