Bad Things, Wednesday 13 (tablatura)

Autor: cezart | 38695 visualizaciones



eaaa
haha
Bad Things!!!
xD eh aki la rola 




intro:
1a---------------------------------------------------------
2a---------------------------------------------------------
3a---------------------------------------------------------
4a---------------------------------------------------------
5a--4-4--x--7--7--6--2--2--2--4--4--4-2--4--4--x--7--7--6--4-4-0
6a--2-2--x--5--5--4--4--4--0--2--2--2-0--2--2--x--5--5--4--2-2-2
y azi ze repite todo el chorus
ahora zige otr parte xd

1a---------------------------------------------------------
2a---------------------------------------------------------
3a---------------------------------------------------------
4a---------------------------------------------------------
5a-7------4--------3---------------------------------------
6a-5------6--------5--------------------------------------


y ze repite el intro en
i want bad things
haha
y el solo no me lo se :S
bno
loego lo pongo
adioz
ezpero ke lez aiia guzthado
adioz










Calificar esta versión:
Aviso: Este fichero es trabajo propio de su transcriptor y representa su interpretación personal de la canción. El material contenido en esta página es para exclusivo uso privado, por lo que se prohibe su reproducción o retransmisión, así como su uso para fines comerciales.