Mi Pobre Corazón, Wascar Aparicio (acordes)

Autor: dj_yo92 | 20990 visualizaciones



lam

e-9---7--5--7--9---7--5--7--9---10--10--10--9---
B-10--9--7--9--10--9--7--9--10--12--12--12--10--
G-----------------------------------------------
D-----------------------------------------------

e-10--10--12--12--10--9---7--5--5--5--4--5------
B-12--12--14--14--12--10--9--7--7--7--5--7------
G-----------------------------------------------
D-----------------------------------------------

e-9---7--5--7--9---7--5--7--9---10--10--10--9---
B-10--9--7--9--10--9--7--9--10--12--12--12--10--
G-----------------------------------------------
D-----------------------------------------------

e-10--10--12--12--10--9---7--5--5--5--4--5------
B-12--12--14--14--12--10--9--7--7--7--5--7------
G-----------------------------------------------
D-----------------------------------------------

lam          SolM
Mi pobre corazón
          FaM             lam
que tuyo fué hoy ya no es mas
rem                FaM
mucho lo hisiste sufrir
             SolM
no quiere saber
                lam
ni un poquito de ti
                SolM
si culpable soy yo
        FaM            lam
me enamore sin comprender
rem                FaM
siego de pasión no vi
                  SolM
que escondia tu piel
             lam
el amargo desden
DoM            SolM
hoy me ire me alejare
   rem         lam
y nunca mas volvere
SibM             lam
mi corazon esta herido
           SolM                 lam
no quiere saber ni un poquito de ti
DoM               SolM
hoy me ire me alejare
   rem          lam
y nunca mas volvere
SibM             lam
mi corazón esta herido
           SolM                  Lam 
no quiere saber ni un poquito de ti

e-9---7--5--7--9---7--5--7--9---10--10--10--9---
B-10--9--7--9--10--9--7--9--10--12--12--12--10--
G-----------------------------------------------
D-----------------------------------------------

e-10--10--12--12--10--9---7--5--5--5--4--5------
B-12--12--14--14--12--10--9--7--7--7--5--7------
G-----------------------------------------------
D-----------------------------------------------

e-9---7--5--7--9---7--5--7--9---10--10--10--9---
B-10--9--7--9--10--9--7--9--10--12--12--12--10--
G-----------------------------------------------
D-----------------------------------------------

e-10--10--12--12--10--9---7--5--5--5--4--5------
B-12--12--14--14--12--10--9--7--7--7--5--7------
G-----------------------------------------------
D-----------------------------------------------
lam          SolM
Mi pobre corazón
          FaM             lam
que tuyo fué hoy ya no es mas
rem                FaM
mucho lo hisiste sufrir
             SolM
no quiere saber
                lam
ni un poquito de ti
                SolM
si culpable soy yo
        FaM            lam
me enamore sin comprender
rem                FaM
siego de pasión no vi
                  SolM
que escondia tu piel
             lam
el amargo desden
DoM            SolM
hoy me ire me alejare
   rem         lam
y nunca mas volvere
SibM             lam
mi corazon esta herido
           SolM                 lam
no quiere saber ni un poquito de ti
DoM               SolM
hoy me ire me alejare
   rem          lam
y nunca mas volvere
SibM             lam
mi corazón esta herido
           SolM                  Lam 
no quiere saber ni un poquito de ti
           SolM              lam
no quiere sabeeeeer nada de ti





Comentarios del colaborador: ¡KAREN TE AMO! Esta canción va dedicada especialmente para KAREN que hasta ahora no e podido olvidarla

Calificar esta versión:
Aviso: Este fichero es trabajo propio de su transcriptor y representa su interpretación personal de la canción. El material contenido en esta página es para exclusivo uso privado, por lo que se prohibe su reproducción o retransmisión, así como su uso para fines comerciales.