Tu Ausencia, Warcry (acordes)

Autor: Anónimo | 28622 visualizaciones

aa5bb5csos5csosmee5fsosfsos5fsosmgsos5gsosm
--------------------------------------------------------|
-------4-----------------------7-4------------6---------|
-----6---6---6--------8------3-----3--------3-----------|x2
---6-------6------6-8------4---------4----4-------------|
-4--------------7--------6--------------6---------------|
--------------------------------------------------------|


-----------------------------------------------------------
---------4---------------4---------------4-----------------
-----6-----6---6-----6-----6---6-----6-----6---6-----6-----
---6---6-----6-----6---6-----6-----6---6-----6-----6---6---
-4---------------4---------------4---------------4-------4-
-----------------------------------------------------------




-----------------------------------------------------------
--------9-10p9---------------9---------9-------------9-10--
-9-9-11--------11-9p8h9-9-11---11-9-11---11-9---9-11-------
---------------------------------------------11------------
-----------------------------------------------------------
-----------------------------------------------------------

-----------9v----------------------------------------------
-----------------------------------------------------------
-11-9-8----------------------------------------------------
--------11-------------------------------------------------
-----------------------------------------------------------
-----------------------------------------------------------



G#5/A5|x4

G#m F# G#m
Déjame
G#m   F#        B
Enterrar el corazón
            A
Que mataste ayer
       F#m       B
Es tan duro recordar

G#m  F#  G#m
Encontré
G#m      F#          B
En tu sonrisa la estación

           A
Donde descansar
       F#m      B
Cuanto me equivoqué

G#m     F#      G#m
Hoy, no sale el sol

           C#m
Aun llueve en mi interior
C#m                   A
Sin compasión, debo pagar
A                  B                     G#m
Por confiar en esa cara de sonrisa angelical


  C#5 C#5/B5/C#5
Y yo
     E5     B5     C#5 C#5/B5/C#5
Condenado a desconfiar
      E5         B5      C#5 C#5/B5/C#5
A olvidar sin querer olvidar
        E5        B5        F#5  G#5
Te he perdido, ya no sé por qué

A5
Dentro de mí siento un volcán
C#5
De ira y pena por igual
F#5              E   B
Quemando mi corazón
A5
Te imaginé, te conseguí
C#5
Después de todo te perdí
F#5                E    B
Solo me queda el dolor
        A
De tu ausencia


[Aquí viene un solo de guitarra que no me he dignado a intentar
sacar]


  C#5 C#5/B5/C#5                        |
Y yo                                    |
     E5     B5     C#5 C#5/B5/C#5       |
Condenado a desconfiar                  |
      E5         B5      C#5 C#5/B5/C#5 |
A olvidar sin querer olvidar            |x2
        E5        B5        F#5  G#5    |
Te he perdido, ya no sé por qué         |


A
Siento tu ausencia
Calificar esta versión:
Aviso: Este fichero es trabajo propio de su transcriptor y representa su interpretación personal de la canción. El material contenido en esta página es para exclusivo uso privado, por lo que se prohibe su reproducción o retransmisión, así como su uso para fines comerciales.