Hacia Adelante, Warcry (tablatura)

Autor: Anónimo | 38503 visualizaciones



G#           Cm    C#              G#  D#
Mi primera batalla, aun suelo recordar
Fm              Cm  C#              G#
sentado en el suelo, entre la oscuridad
    A#m          Fm   A#
sin reir, sin llorar
G#               Cm    C#             G#  D#
Naci siendo un esclavo, sin amo sin señor
Fm           Cm     C#                G#
vivia sin problemas, sin sueños ni ilusion
       A#m        Fm   A#
sin perder, sin ganar

  C#        A#m    F#          D#
Entonces le vi, en pie frente a mi

(entra la guitarra electrica y la distorsión)

G#            Cm   C#             G#  D#
Llegaron a mi alma, voces de libertad
Fm               Cm   C#               G#
Un grupo de guerreros, dispuestos a luchar
        A#m        Fm  A#
ya esta bien de callar
G#              Cm   C#                 G#  D#
Al pie de la muralla, que el enemigo alzo
Fm                 Cm  C#               G#
nos sorprendio la noche y un frio aterrador
   A#m       Fm  A#
congelo mi valor

  C#        A#m    F#          D#
Entonces le vi, en pie frente a mi

        G#                       D#
Y el cielo se ilumino con su sonrisa
      Fm                       C# Cm A#m
las estrellas parecian brillar mas
Cm    G#                        D#
aun recuerdo el fulgor de su mirada
      Fm                   C# Cm A#m Cm
sus palabras no olvidare jamas
       C#            D#         G#
'Chico ahí delante esta la libertad'

   G#                              D#
e|---------------------------------------------------------------------------|
B|-9--8-9----9-8---/9--8-----9-8---/11--9--8---------------------------------|
G|--------8------8--------8------8-----------10--8---------------------------|
D|--------------------------------------------------11-10--11--10-8----------|
A|-------------------------------------------------------------------11--10--|
E|---------------------------------------------------------------------------|
   Fm                               C#        Cm       A#m       Cm
e|---------------------------------------------------------------------------|
B|---------------------------------------------------------------------------|
G|--------------------------------8-8b10----------r----5---------6-----------|
D|----------10------------8-10-11--------------------------------------------|
A|-8--11-8--------8-10-11----------------------------------------------------|
E|---------------------------------------------------------------------------|
   G#                                    D#
e|---------------------------------------------------------------------------|
B|---------------------------------------------------------------------------|
G|-6p5---6p5---6p5---6p5---6p5---6p5---6-/8--6-5-/8--6-5-/8--6--8---10-/12---|
D|-----6-----6-----6-----6-----5-----6---------------------------------------|
A|---------------------------------------------------------------------------|
E|---------------------------------------------------------------------------|
   Fm                               C#        Cm       A#m       Cm
e|---------------------------------------------------------------------------|
B|---------------------------------------------------------------------------|
G|-10----8--------------------------6--------/8--------5---------/6----------|
D|----------11-10h11p10---6--------------------------------------------------|
A|---------------------------------------------------------------------------|
E|---------------------------------------------------------------------------|


       C#            D#         E
B|------9------------11---------|
G|-----10------------12---------|
'Chico ahí delante esta la libertad'


Solo: [E B C#m A-G#m-F#m-G#m] x2 A B

El punteo que viene después es a dos guitarras, me dio flojera sacarlo, pero
aquí van las notas base:

C G Am F C G Am F Dm G C x2
G# C G#  A# G#


Y el cielo se ilumino con su sonrisa
                               C# Cm A#m
las estrellas parecian brillar mas
Cm    G#                        D#
aun recuerdo el fulgor de su mirada
      Fm                   C# Cm A#m Cm
sus palabras no olvidare jamas
       C#            D#         G#
'Chico ahí delante esta la libertad'

        C#*       D#
Desde entonces adelante
     C#           D#
caminando hacia delante
        C#           D#
por que se que ahi delante está
G# G# D# G#
la libertad

*punteo que se toca en el fondo:
   C#    D#    C#   D#     C#    D#            G#  G#  D#  G#
e|-------------------------9-----/11~--------------------------|
B|-9-----11----9----11-------------------------13--13--11--13~-|
G|-------------------------------------------------------------|
D|-------------------------------------------------------------|
A|-------------------------------------------------------------|
E|---------------------------------------------------------4...|
                                               la  li- ber- tad...

   G#
e|-----------------------------------------------------------------|
B|-13~-------------------------------------------------------------|
G|----------------(no estoy totalmente seguro de Esta -------------| x3
D|---------------- parte, pero a mi me suena bien....)-------------|
A|-----------------------------------------------------------------|
E|-4---x-x-x-x-6---x-x-x-x-8---x-x-x-x-6---x-x-x-x-6---x-x-8---x-x-|


   G#   D#   G#   D#   G#
e|--8---11----8---11----8~-- 





Calificar esta versión:
Aviso: Este fichero es trabajo propio de su transcriptor y representa su interpretación personal de la canción. El material contenido en esta página es para exclusivo uso privado, por lo que se prohibe su reproducción o retransmisión, así como su uso para fines comerciales.