La Vida, Wanna Banna (acordes)

Autor: Anónimo | 40423 visualizaciones

bmccmg
e-----------------------7-8-10-8-7-8-7/87--
B-7/8-------8-8/10-8-10--------------------8
G-----7---7---------------------------------
D-------9-----------------------------------
A-------------------------------------------
E-------------------------------------------


e-7/8-7---------7---------------------
B-------10-8-10---7-8-8/10-8-7/8-8----
G----------------------------------7--
D------------------------------------9
A-------------------------------------
E-------------------------------------




intro - G Bm C Cm x2 G Bm C por que pensar que lo que digo Cm G se lo lleva el viento y ver Bm C que la tristeza nos envuelve Cm en solo un momento G Bm y que las olas me dicen que no, que por que C Cm y que la brisa me lleva a pensar que estoy G Bm en el lugar que jamas imagine C Cm ocupando un lugar en el tiempo G - Bm - C - Cm x2 G Bm y mi yo me pregunta que haces aqui C Cm esperando que alguien venga por ti G Bm C y empezar a imaginar que pasara Cm si una flor no pudiera marchitar G - Bm - C - Cm G Bm C al caminar con las estrellas Cm miras mas arriba de tus pies G Bm C quieres ser el poder que te obligue a crecer Cm hacia lo mas profundo G Bm y que las olas me dicen que no, que por que C Cm y que la brisa me lleva a pensar que estoy G Bm en el lugar que jamas imagine C Cm ocupando un lugar en el tiempo G Bm y hoy comienzo a caminar C Cm me doy cuenta de los retos G Bm C que la vida me da, que tengo que pasar Cm G entre las olas del mar
Calificar esta versión:
Aviso: Este fichero es trabajo propio de su transcriptor y representa su interpretación personal de la canción. El material contenido en esta página es para exclusivo uso privado, por lo que se prohibe su reproducción o retransmisión, así como su uso para fines comerciales.