Ah Ah Oh No, Wamba (acordes)

Autor: danielito1 | 39662 visualizaciones

E----------------------------15~
b-------------------------------
g------------9-8----------------
D--9s10----------10-9-7---------
A-------10--------------10------
E-------------------------------

e---------------------------------------15~
b------------------------------------------
g-----------9-8----------------------------
D--9s10----------10-9-7--------10----------
A-------10--------------10--------10-------
E------------------------------------------



     (C)                 (F)
e-----------------------------------
b-----------------------------------
g----------------9----10-10-10------     x3
D--9s10-10-10-10---------------10-7-
A-----------------------------------
E-----------------------------------


     (C)                  (G)
e------------------------------------
b------------------------------------
g----------------12----10-10-10-9-7--
D--9s10-10-10-10---------------------
A------------------------------------
E------------------------------------



(C)                (E)     (Am)             (C)
Dices q me quieres, se que no puede ser
(F)                 (C)      (F)              (G)
Pero cuando tu me besas, te lo vuelvo a creer

(C)        *       (E)           (Am)               (C)
No se como lo haces, [ah ah] me vas a enloquecer [oh no]
(F)                  (C)                 (F)        (G)
Las cosas que a mi me pasan, no las puedo comprender


*Ahi va un riff
g-----------7----------------------------------------
D--9s10-10----9-------5s7-7-5----------7-----5-----5~
A---------------10------------8-7----8---8-7---7-8---


(C)         (F)      (G)
Yo no se lo que es...
(C)              (G)
Mamita me va a matar
(F)              (G)
Con sus malos pensamientos
(Am)               (Dm)
Yo no se pero yo presiento
(F)                     (G)
Me esta maldiciendo a Mi 


Pero cuando me besas me renace la fe
Se me olvida en el momento que tu no quieres querer
Tu presencia desorienta y me hace estremecer
Por que se que aunque resisto
No puedo ganar ni perder

Yo no se lo que es
Mamita me va a matar
Con sus malos pensamientos
Yo no se pero yo presiento
Me esta maldiciendo a Mi 


             (G) G (F) (G)    (C) C (Am) (C)
b-----------------------5-5--3-5--
g--10s2------4-4-2-4--------------


b-----------------------5-5--3-5--
g------------4-4-2-4--------------
D---------------------------------
A---------------------------------
E--12s3---------------------------



  (F)       (G)     (C)       (Am)     (F)       (E)      (A7)   (Am)
Lalaaa lala   lalaaa lala   lalaaaa lala   lalaaaa lala
                 (F) (G)                  (C)
(F)           [g-] 2-4               [b-5]**** Estos son pequeños
Lala lalala lala    lala lalala lala         golpes q da la guitarra
             (F)      (G)     (C)
lala lala lala lalala lala


g--------------7----------------------------9~--------
D--7-7-7-7-9-9---10-----9s10-10-10----10-10----10-----
A----------------------------------10-----------------

                                                    (G)
g--------------7-------------------9---------------12-
D--7-7-7-7-9-9---10-----9s10-10-10--------------------
A-------------------------------------10-10-10-10-----



(G)                                     (C)    (Am)
Yo te pido un besito [ah ah] y te toco la manito [oh no]
(F)                (G)               (C)               (Am)
Y te digo q te quiero [ah ah] q eres mi unico anhelo [oh no]
(F)                 (G)                 (C)            (Am)
Ay tu eres mi bombon [ah ah] mi bombon de chocolate [oh no]
(F)                     (G)                   (C)        (Am)
Cuando te miro a los ojos [ah ah] el corazon me late [oh no]
(F)                 (G)          (C)            (Am)
Yo te llevo a Panama [ah ah] y te digo asi [oh no]
(F)                    (G)                (C)                   (Am)
Te voy a llevar a Brasil [ah ah] despues nos vamos a Colombia [oh no]
(F)                (G)                   (C)                (Am)
Bailaremos la Cumbia [ah ah] de Puerto Rico y en Bogomba [oh no]


        (F) F (Am)  (G)          (C) C    (E)     (Am)
Ay mamacita linda [ah ah] tu eres mi anhelo [oh no]
     (F)  (F)  (Am)   (G)            (C)   (C)    (E)      (Am)
tu seras mi tesoro [ah ah] es q yo a ti te adoro [oh no]
           (F) F  (Am)   (G)             (C)  (C)      (E)       (Am)
Yo te llevo a Martinica [ah ah] ahi te compro una casita [oh no]
        (F) F (Am)     (G)          (C)  (C)        (E)         (Am)
Yo te llevo a bacilar [ah ah] a la fiesta de San Juan [oh no]



(F) (G) (C) (Am) (F) (E) (A7) (Am)



B|-----------------3s5-5---------
g|-2s5-5---2s4-4-----------2s5-5-

                                         x2
g|-2s5-5---2s4-4---4s7-7---4s6-6




  (F)       (G)     (C)       (Am)     (F)       (E)      (A7)   (Am)
Lalaaa lala   lalaaa lala   lalaaaa lala   lalaaaa lala
                 (F) (G)                  (C)
(F)           [g-] 2-4               [b-5]**** Estos son pequeños
Lala lalala lala    lala lalala lala         golpes q da la guitarra
             (F)      (G)            (C)
lala lala lala lalala lala    E--8s1
Calificar esta versión:
Aviso: Este fichero es trabajo propio de su transcriptor y representa su interpretación personal de la canción. El material contenido en esta página es para exclusivo uso privado, por lo que se prohibe su reproducción o retransmisión, así como su uso para fines comerciales.