Sobre La Raya, Walter Giardino (tablatura)

Autor: Anónimo | 29898 visualizaciones

b= bend.
h= pull o hammer respectivamente.
r= bend con realse.
~= vibrato.
/= slice.
Ritmo= 4/4.
Tempo= 120 (ritmo normal).


SOLO:

E||--------------------------|--12h-10------------------|
B||--10b---10b---10b---10b---|----------12--9-----------|
G||--------------------------|-------------------9~-----|
D||--------------------------|--------------------------|
A||--------------------------|--------------------------|
E||--------------------------|--------------------------|


E||-----------------------|---------------------|
B||-----------------------|---------------------|
G||----7h-9h-7--9b---9b---|--9r---7--9~---------|
D||-----------------------|----------9~---------|
A||-----------------------|----------7~---------|
E||-----------------------|---------------------|


E||----------------------------------|-------------------------|
B||----------------------------------|-------------------------|
G||------------------9r-9-7----------|-------------------------|
D||--9r-9h7-9h7-------------9-7------|--7b-7b7b7b7r5-----------|
A||-------------10-7------------10-7-|----------------7~-------|
E||----------------------------------|-------------------------|


E||--------------------------------|------------------------------|
B||--------------------------------|------------------------------|
G||--------------------------------|------------------------------|
D||-----------------5r-5-3---------|---------------------5--7h-5--|
A||--5r-5h3-5h3------------5-3-----|--5r-5h3-------3-5/7----------|
E||-------------6-3------------6-3-|---------6h3-6----------------|


E||----------------------|----------------------|-------------------------|
B||----------------------|----------------------|-------------------------|
G||----------------------|----------------------|-------------------------|
D||--7b---7b---7b---7b---|--7b---7b---7b---7b---|--5----------------------|
A||----------------------|--7b---7b---7b---7b---|-----7~---------5--------|
E||----------------------|----------------------|------------5h7----7h-5--|


E||----------------------|-----------------------------------|
B||----------------------|----3---3-5h3-8-5---5-8h5-10-8---8-|
G||----------------------|--4---4-----------6------------9---|
D||----------------------|-----------------------------------|
A||----------------------|-----------------------------------|
E||--7--5--3--0~---------|-----------------------------------|


E||------------------------15-12----12-------|
B||------12-------15h12----------15----15b---|
G||--14b----16-14b------14-------------------|
D||------------------------------------------|
A||------------------------------------------|
E||------------------------------------------|


E||-----12-------------------------------------------|-----------------------|
B||--15b---15-12----12-------------------------------|-----------------------|
G||--------------14b---14-12-14----------------------|--14----12b-9~---------|
D||--------------------------------------------------|--14-------------------|
A||-----------------------------14-12-------12-------|--12-------------------|
E||-----------------------------------12-15----15-12-|-----------------------|


E||--15-19-17-15----15-19-17-15----15-19-17-15----15-19-17-15----15-19-17-15-|
B||--------------17-------------17-------------17-------------17-------------|
G||--------------------------------------------------------------------------|
D||--------------------------------------------------------------------------|
A||--------------------------------------------------------------------------|
E||--------------------------------------------------------------------------|


E||-----15-19-17-15----15-19-17-15----15-19-17-15----15-19-17-15----15--|
B||--17-------------17-------------17-------------17-------------17-----|
G||---------------------------------------------------------------------|
D||---------------------------------------------------------------------|
A||---------------------------------------------------------------------|
E||---------------------------------------------------------------------|


E||--17b---17b---17b---17b---|--15------17--15~---------|
B||--------------------------|------17------------------|
G||--------------------------|--------------------------|
D||--------------------------|--------------------------|
A||--------------------------|--------------------------|
E||--------------------------|--------------------------|


E||-----12-15----12-15----12-15----12-15----12-15----|
B||--15b------15b------15b------15b------15b---------|
G||--------------------------------------------------|
D||-----------------------------------------------14-|
A||--------------------------------------------------|
E||--------------------------------------------------|


E||------------------------------|
B||------------------------------|
G||--12b-----14--14--12b---------|
D||------14--14--14------14~-----|
A||----------------------14~-----|
E||------------------------------|


E||--------------------------------------------------|------------------------|
B||-----------------------------15-12----------------|------------------------|
G||--------------------12-14-12-------14-12----14-12-|--14r---12--------------|
D||--------12----12-14----------------------14-------|------------14~---------|
A||--12-14----14-------------------------------------|------------------------|
E||--------------------------------------------------|------------------------|


E||-----------12----------------12----------------15-|
B||-----15h12----15----12-15-12----15----12-15-12----|
G||--14b------------14b---------------14b------------|
D||--------------------------------------------------|
A||--------------------------------------------------|
E||--------------------------------------------------|


E||--12-------17-15-12----12-----------|
B||-----15-12----------15----15b-------|
G||------------------------------------|
D||------------------------------------|
A||------------------------------------|
E||------------------------------------|


E||--15-12-------------------------------------------|
B||--------15-12-15-12-15-12-15-12-15-12-15-12-15-12-|
G||--------------------------------------------------|
D||--------------------------------------------------|
A||--------------------------------------------------|
E||--------------------------------------------------|


E||--15-12-------------------17b---17b---|--15------------------|
B||--------15-12-15-12-15-12-------------|------17~-------------|
G||--------------------------------------|----------------------|
D||--------------------------------------|----------------------|
A||--------------------------------------|----------------------|
E||--------------------------------------|----------------------|


E||------------------------|------||
B||------15--15------------|------||
G||--14b-----14r-----------|------||
D||------------------------|------||
A||------------------------|------||
E||------------------------|------||
Calificar esta versión:
Aviso: Este fichero es trabajo propio de su transcriptor y representa su interpretación personal de la canción. El material contenido en esta página es para exclusivo uso privado, por lo que se prohibe su reproducción o retransmisión, así como su uso para fines comerciales.