Los Amigos Del Campeón, Walter Giardino (tablatura)

Autor: Anónimo | 36385 visualizaciones

Intro:

e|-------
B|-------
G|-------
D|-114--
A|-114--
E|-------

e|----------------------------------------      |--14b(16)r--
B|----------------------------------------      |------------
G|-------------------------------4--2-----      |------------
D|-6-6-6--5--4--2----------------4--2--2--      |------------
A|-4-4-4--3--2--0--4--4-2-2-4-2--2--0--2--      |------------
E|-----------------2--2-0-0-2-0--------0--      |------------

e|----------------------------------------      |------------
B|----------------------------------------      |------------
G|-------------------------------4--2-----      |------------
D|-6-6-6--5--4--2----------------4--2--4--      |-4--2-/-4
A|-4-4-4--3--2--0--4--4-2-2-4-2--2--0--4--      |------------
E|-----------------2--2-0-0-2-0--------2--      |------------

e|----------------------------------------      |---------------
B|----------------------------------------      |---------------
G|-------------------------------4--2-----      |-2b---2b-------
D|-6-6-6--5--4--2----------------4--2--2--      |---44---443322-
A|-4-4-4--3--2--0--4--4-2-2-4-2--2--0--2--      |---------------
E|-----------------2--2-0-0-2-0--------0--      |---------------

e|----------------------------------------
B|----------------------------------------
G|-------------------------------4--2-----
D|-6-6-6--5--4--2----------------4--2--4--
A|-4-4-4--3--2--0--4--4-2-2-4-2--2--0--4--
E|-----------------2--2-0-0-2-0--------2--

===============================================================

Riff1
e|-------------------------------|
B|-------------------------------|
G|-2-----------------------------|
D|-2--4-------4-------4------4-2-|
A|-0--4-------4-------4------4-2-|
E|-------0-0-----0-0-----0-0-----|
PM       . .     . .     . .

Riff1 x6
 La gran pelea ya esta por comenzar
 hay más amigos que minutos atrás
 Sos el campeon te palmaran al pasar
 algunas manos para ver que sacar
                                    e|--------
B5        A5          E5         B5  |========>      B|-5p4----
 Ellos no tienen nada más que perder            G|-----4~-
B5        A5             E5      F#5 |========================>      A|-2-2-2-4-3-
 unen sus dientes con la sonrisa fiel                        E|-0-0-0-2-1-
B5        A5          E5         B5   Repetir Intro
 y se presentan como amigos del gran campeón


 No tengas miedo te diran vos confia
 la gran moneda ayudarán a gastar
 facil concejos de su boca saldrán
 desde el mercedes deberan entrenar

 Ellos no tienen nada más que perder
 si vas callendo buscarán otro pez
 ellos trabajan como amigos del gran campeón

===============
Repetir Intro =
===============
A                   B                F#
 Y como perros viviran gracias a tu historia ... tu historia
A                   B
 Y comerán del gran banquete que dio tu gloria ... tu gloria ...
Calificar esta versión:
Aviso: Este fichero es trabajo propio de su transcriptor y representa su interpretación personal de la canción. El material contenido en esta página es para exclusivo uso privado, por lo que se prohibe su reproducción o retransmisión, así como su uso para fines comerciales.