Cacería, Walter Giardino (tablatura)

Autor: Anónimo | 15513 visualizaciones

Intro
Con palm mute
E|-----------------------------------------------------------------------|
B|-----------------------------------------------------------------------|
G|-----------------------------------------------------------------------|
D|-----------------------------------------------------------------------|
A|---------------------------------------------------------2-------------|
E|-0-0-0-5-7-8-0-0-7-0-0-5-0-0-3-0-0-0-0-5-7-8-0-0-7-0-0-0---5-3-2-------|

                                         h
E|-----------------------------------------------------|
B|-----------------------------------------------------|
G|--------------------------------5------4~~---2--0~~--|
D|--------------------------------5------------2-------|
A|-----------------------------------------------------|
E|-0-0-0-5-7-8-0-0-7-0-0-5-0-0-0-----------------------|

E|-----------------------------------------------------------------------|
B|-----------------------------------------------------------------------|
G|-----------------------------------------------------------------------|
D|-----------------------------------------------------------------------|
A|---------------------------------------------------------2-------------|
E|-0-0-0-5-7-8-0-0-7-0-0-5-0-0-3-0-0-0-0-5-7-8-0-0-7-0-0-0---5-3-2-------|

E|----------------------------------------------------|
B|----------------------------------------------------|
G|--------------------------------5~~~-------4-4-4-4--|
D|--------------------------------5~~~-------4-4-4-4--|
A|----------------------------------------------------|
E|-0-0-0-5-7-8-0-0-7-0-0-5-0-0-0----------------------|

Estrofa

E|-----------------------------------------------------------------------------|
B|-----------------------------------------------------------------------------|
G|-----------------------7----9---------------------------------------9---8----|
D|-----------------------7----9---------------5-----------------------9---9----|
A|--------------------------------------------3--------------------------------|
E|------------------------------------------------------3/5-/-7--5------------|
   Nacio en otro tiempo la cruel caceria de brujas y herejes los acusaran

E|-----------------------------------------------------------------------------------|
B|-----------------------------------------------------------------------------------|
G|---------------------7-9-----------------------------------------------------------|
D|---------------------7-9-----------------------------------------------------7--5--|
A|---------------------------------------------3/5-3--------------------------5--3--|
E|--------------------------------------------------------3-/-5-/-7-5~~-------------|
  Y habra mas castigo para quien descubra e informe a su pueblo cual es la 
verda-ad

                                  (A5)h       (G5)           (C5)
E|------------------7h12p7----------------------------------------------------------------------|
B|-------------------------8h12p8-----------------13b(15)r-12-----------------------------------|
G|------------------------------------------------------------12--------------------------------|
D|------------------------------------7---------------------------------------------7-----------|
A|-3---2-0---2---------------------0----------------------------------------5-------5-----------|
E|-----------0--------------------------------------------------------------3-------------------|
  Y en esos campos libro,             la libertad,               donde 
ensañado al reino golpeo.

Repite INTRO

Con verdes caballos pisaron ideas,
quemando los libros que te hacen pensar.
Usando traidores alzaron las armas,
cortando la carne de la libertad.
Y el gran imperio sonrio una vez mas.
Sombras trepando la realidad.

E|----------------------------------------------------------------------------------------|
B|----------------------------------------------------------------------------------------|
G|----------------------------------------------------------------------------------------|
D|----------------------------------------------------------------------------------------|
A|----------------------------------------------------------------------------------------|
E|--------------5~~------5-/7-/8-/10-10-8--7----3----------3/--5/-7/-8------------------|
  Se oyen los gritos en la oscuridad de los que claman desde el mas alla


E|----------------------------------------------------------------|
B|----------------------------------------------------------------|
G|----------------------------------------------------------------|
D|----------------------------------------------------------------|
A|----------------------------------------------------------------|
E|-8--8----8--5~~-----8--8---8--7-----------0--------2--------3---|
  Oh la injusticia debieron sufrir en las edades de la humanidad.

E|-------------12-----------------------------------------------------------------|
B|/12--13--15-----15--13v13----12-13----------12--13---15-13-12v12----12----------|
G|----------------------------------14----/14----------------------14--------12---|
D|--------------------------------------------------------------------------------|
A|--------------------------------------------------------------------------------|
E|--------------------------------------------------------------------------------|
  Pero en los campos siempre brillara      la luz del fuego de alguna 
hermandad

E|---------------------------------------------------|
B|--------12-13--12----------------------------------|
G|/12--14-----------14v14---12-14-11---8~~~----------|
D|---------------------------------------------------|
A|---------------------------------------------------|
E|---------------------------------------------------|
  Que con su sangre querra alimentar   la libertad.

SOLO

E|-4-0-0-5-0-0-7-0-0-8-0-0-10-0-12-0-13-0-0-12-0-0-13p12-16-17-19---|
B|------------------------------------------------------------------|
G|------------------------------------------------------------------|
D|------------------------------------------------------------------|
A|------------------------------------------------------------------|
E|------------------------------------------------------------------|

===============================================================================================
NOTA: Aca presten atencion a las variaciones de las triadas.
===============================================================================================

E|-20-17----20-17----20-------20-17----20-17----17-14----17-14----17----14-17-14----17-14----|
B|-------17-------17----17-17-------17-------17-------15-------15----15----------15-------15-|
G|-------------------------------------------------------------------------------------------|
D|-------------------------------------------------------------------------------------------|
A|-------------------------------------------------------------------------------------------|
E|-------------------------------------------------------------------------------------------|


E|-19-15----19-15----19-------19-15----19-15----15-12----15-12----15----12-15-12----15-12----|
B|-------15-------15----15-15-------15-------15-------13-------13----13----------13-------13-|
G|-------------------------------------------------------------------------------------------|
D|-------------------------------------------------------------------------------------------|
A|-------------------------------------------------------------------------------------------|
E|-------------------------------------------------------------------------------------------|


E|-17-14----17-14----17-------17-14----17-14----14-11----14-11----14----11-14-11----14-11----|
B|-------13-------13----13-13-------13-------13-------12-------12----12----------12-------12-|
G|-------------------------------------------------------------------------------------------|
D|-------------------------------------------------------------------------------------------|
A|-------------------------------------------------------------------------------------------|
E|-------------------------------------------------------------------------------------------|


E|15-12---12-15-12---15-17-14----14-17-14----17-19-15----15-19-15----19-19-16----16-19-16----19|
B|-----12---------12----------15----------15----------15----------15----------17----------17---|
G|---------------------------------------------------------------------------------------------|
D|---------------------------------------------------------------------------------------------|
A|---------------------------------------------------------------------------------------------|
E|---------------------------------------------------------------------------------------------|


E|-[20-17---]X8-[17-14---]X8--[19-15---]X8--[15-12---]X8--[17-14---]X8--[15-12---]X4-147/14~~|
B|-[------17]---[------15]----[------15]----[------13]----[------13]----[------12]------------|
G|--------------------------------------------------------------------------------------------|
D|--------------------------------------------------------------------------------------------|
A|--------------------------------------------------------------------------------------------|
E|--------------------------------------------------------------------------------------------|

Esta parte es muy rapida

E|-------------------------------------7------7-8----7-8-10-15-14-12-14-15-14-12-19b(20)rb-19~|
B|-8-7-5-4-5-7-8-7-5-8-7-5-10-8-7-8-10---8-10-----10------------------------------------------|
G|--------------------------------------------------------------------------------------------|
D|--------------------------------------------------------------------------------------------|
A|--------------------------------------------------------------------------------------------|
E|--------------------------------------------------------------------------------------------|


E|-19h20p19-17-19-17-15-17-15-14-15-14 [19h20p19-17-19-17-15-17-15-14-15-14-19-14-15-17-15-14]x2|
B|----------------------------------------------------------------------------------------------|
G|----------------------------------------------------------------------------------------------|
D|----------------------------------------------------------------------------------------------|
A|----------------------------------------------------------------------------------------------|
E|----------------------------------------------------------------------------------------------|


E|-------------------------------------------------------------------------------------------|
B|-12-13-15-13-12-13-16-13-12-13-15-13-12-13-16-13-12-13-15-13-12-13-17-13-12-13-15----------|
G|----------------------------------------------------------------------------------15-13-12-|
D|-------------------------------------------------------------------------------------------|
A|-------------------------------------------------------------------------------------------|
E|-------------------------------------------------------------------------------------------|


E|------------------------------------------------------------------------------5-8-5----8-11-8|
B|----------10-12-13-12-10----------------------------------------------------7-------10-------|
G|-------------------------12-10-9-7-9-10------------------------------------------------------|
D|-15-13-12-------------------------------10-8-7-5-7-8-----------------------------------------|
A|-----------------------------------------------------8-6-5-----------5-6-8-------------------|
E|-----------------------------------------------------------8-6-5-6-8-------------------------|


E|-/19b(20)-17-19-17-------------------------------------------------|
B|-------------------20-19-20b(22)-17-19-17-------17-----------------|
G|------------------------------------------19-17----17-19-17-16~~~--|
D|-------------------------------------------------------------------|
A|-------------------------------------------------------------------|
E|-------------------------------------------------------------------|


E|--------------------------------------------------------------------------------------------|
B|--------8-9-8-12-8--------8-9-8-12-8----12-15----15-------15-15-10-7------------------------|
G|-9b(10)------------9b(10)------------15-------15----15-15------------9-7-9-9b(11)r-7-----7~~|
D|-------------------------------------------------------------------------------------9-7----|
A|--------------------------------------------------------------------------------------------|
E|--------------------------------------------------------------------------------------------|


E|-13-11-10-14-11-10-13-11-10-14-11-10-13-11-10-14-11-10-13-11-10-14-11-10-13-11-10-14-11-10-|
B|-------------------------------------------------------------------------------------------|
G|-------------------------------------------------------------------------------------------|
D|-------------------------------------------------------------------------------------------|
A|-------------------------------------------------------------------------------------------|
E|-------------------------------------------------------------------------------------------|


E|-14-11-10---11-10-------------11-7-8----7---------------------------------------------|
B|------------------13-10/12~~---------10---8-10-7-8---7--------------------------------|
G|---------------------------------------------------9---8-9-4-5---4--------------------|
D|---------------------------------------------------------------7---5-7-4-5---5-4-5----|
A|---------------------------------------------------------------------------7----------|
E|--------------------------------------------------------------------------------------|

                                                         h        h
E|----------------------------------------------------------------------|
B|----------------------------------------------------------------------|
G|---------------4-4-4-4------------------------------5--4~~---2--0~~---|
D|---------------4-4-4-4------------------------------5--------2--------|
A|-2-3---2----------------2~~~---2~~~---2--2--2--2----------------------|
E|-----5---3-5-2----------0~~~---0~~~---0--0--0--0----------------------|

El hijo del héroe tendrá la venganza,
honrando la sangre que lo concebió.
A ciega justicia dirá en su balanza
que el ojo por ojo es castigo de Dios.
Y esa batalla verás, continuará
entre la luz y la oscuridad...

  Con palm mute                        FINAL Con vibrato de mano derecha
E|---------------------------------------------------------------------------------|
B|---------------------------------------------------------------------------------|
G|--------------------------------------------------9~~~---10~~~---14~~~--9-9-9-9--|
D|------------------------------------------------------------------------9-9-9-9--|
A|-----------------------------------------7~~~---------------------------7-7-7-7--|
E|-[0-0-0-5-7-8-0-0-7-0-0-5-0-0-3]x7--------------------------------------0-0-0-0--|
  Esa batalla... continuará...  Esa batalla... continuará.
Calificar esta versión:
Aviso: Este fichero es trabajo propio de su transcriptor y representa su interpretación personal de la canción. El material contenido en esta página es para exclusivo uso privado, por lo que se prohibe su reproducción o retransmisión, así como su uso para fines comerciales.