Jeremias Pies De Plomo, Vox Dei (tablatura)

Autor: Anónimo | 27919 visualizaciones



intro:
|-----------------------------------------------|
|-----------------------------------------------|
|-----------------------------------------------|
|-------------------5------------------5--------| X2
|--0--7-5-7-5---5-7---7-6-5------5-6-7---7-5----|
|-------------8--------------5-8----------------|

|-------------------------------------------------------|
|-------------------------------------------------------|
|-------------------------------------------------------|
|-----------5----------------------5-7----------7-5-----|
|------5------7-6-5--------5-6-7-9----------5-6-----7-5-|
|--5-8-----------------5-8--------------5-8-------------|

|---------------------|  |-------------------------------|
|---------------------|  |-------------------------------|
|---------------------|X2|-----------------------7-7----|
|---------------------|  |----------5-6-7--7-7--7-7--7-|
|------7---6-5--------|  |------6-7--------7-7--5-5--7-|
|--5-8---------8------|  |--5-8------------5-5--------5-|


estrofa y estribillo:
|-----------------------------------|
|-----------------------------------|
|--2--2--2--5-7-8----2--2--2-7-5----|
|--2--2--2--5-7-8----2--2--2-7-5-5--|
|--0--0--0--3-5-6----0--0--0-5-3-5--|
|--------------------------------3--|

cualquier cosa escriban:
[email protected]

Fuente original: LaCuerda
Colaborador original: roge [[email protected]]





Calificar esta versión:
Aviso: Este fichero es trabajo propio de su transcriptor y representa su interpretación personal de la canción. El material contenido en esta página es para exclusivo uso privado, por lo que se prohibe su reproducción o retransmisión, así como su uso para fines comerciales.