A Nadie Le Interesa Si Quedas Atras (total Que), Vox Dei (acordes)

Autor: Anónimo | 19773 visualizaciones

acde7fg


 Intro: E7 x 4

A             C    D         F      A    C  D  F
Sigue siempre adelante sin mirar atras
A     C         D         F      A       C  D  F
total que te importa un escollo mas

trata siempre de ubicarte en el primer lugar
que a nadie le interesa si quedas atras, no no no

A    C D   F    A      C  D F
Total,  total, que mas da

A    C D   F    A      C  D F
Total, total, que mas da

Total, total, que mas da
Total, total, que mas da

  E7                     A   G        A      E7
--------------------    ----------------    -----
--5-5-5-5-5-5---5-5-    ----------------    --5--
--7-7-7-7-7-7-7-7-7- x4 ---------------- X8 --7--
--6-6-6-6-6-6-6-6-6-    -7-----------7    --6--
--7---7-------7------   -7-----------7    --7--
--------------------    -5--0-3-0-3--5    -----

Sigue siempre adelante...

Trata siempre de...

Total, total...

E7 x8

sugerencia para la estrofa y estribillo:

  A    C   D      F
---------------------
---------------------
--2-2--5-x-5-7-x-10--
--2-2--5-x-7-7-x-10--
--0-0--3-x-5-5-x--8--
--------------------- 

Fuente original: LaCuerda
Colaborador original: roge [[email protected]]





Calificar esta versión:
Aviso: Este fichero es trabajo propio de su transcriptor y representa su interpretación personal de la canción. El material contenido en esta página es para exclusivo uso privado, por lo que se prohibe su reproducción o retransmisión, así como su uso para fines comerciales.