9, Vilma Palma E Vampiros (tablatura)

Autor: Anónimo | 29302 visualizaciones

Intro:

     F         C    F       C     Dm                      G

e----1~----------------------------------------------------------------------------------------|
B----1~----------------------------------------------------------------------------------------|
G----2~----5------------5---------7-7-7-7-7-7-7-7-7-7-7-7h12-12-12-12-12-12-12-12-12-12-12-12/-|
D----3~--7---7-5------7---7-5-7~---------------------------------------------------------------|
A----3~----------7~~---------------------------------------------------------------------------|
E----1~----------------------------------------------------------------------------------------|


F             C         F             C         Dm     G        
  Uuh uuh uuh uuh uuh!... Uuh uuh uuh uuh uuh!



Verso 1:

Dm        Em            F             C
  Y te vi,  mi ambición, no pasa por verte llorar.
Dm         Em         F             C
  Vas A ser  MI razón, el tiempo dirá lo demás.
F                C         F                C
  Las cosas que van a venir son parte de esta mutación.
Bb                                      Dm                   G
  Nueve siglos de sol con delirio y perdón nos queman a los dos.




Coro:

      F       C     F       C  Dm                   G
  No ha-a-a-a-ay luga-a-a-a-ar    como estar sin luz como estar con vos.
      F       C     F       C  Dm                   G
  No ha-a-a-a-ay luga-a-a-a-ar    como estar sin luz como estar con vo-o-o-o-o-o-o-o-o-os!!!.




Intro




Verso 2:

Dm         Em            F             C
  Tu rumor    mi obsesión no pasa por verte gritar.
Dm                Em             F               C
  No es tan fácil    desprenderse de lo que uno tanto guardó,
F             C           F             C
  y no te querés conseguir es parte de nuestra verdad.
Bb                                   Dm                   G
  Nueve siglos de sol por dolor y pasión siempre seremos dos.




Coro




Solo:

  F       C     Dm            G             F       C     Dm            G

e-------------------------------------------------------------------------------------------|
B-------------------------------------------------------------------------------------------|
G-----5---------7-7-7-7-7-7-7h9-9-9-9-9-9/------5---------7-7-7-7-7-7-7h9-9-9-9-9-9-9h10~~--|
D---7---7-5~----------------------------------7---7-5~--------------------------------------|
A------------7~----------------------------------------7~-----------------------------------|
E-------------------------------------------------------------------------------------------|




Puente:

F             C             F            C
  Es hora de vernos mi amor, mirame que yo entenderé.
Bb                                     Dm                 G
  Nueve besos te doy, empujame y buscame no me dejes sangrar.




Coro (2)




Outro:


e-----------------------0----|
B---------------------1------|
G--0-2--------------0--------|
D------2-0--------2----------|
A----------3----3------------|
E----------------------------|


Esta rola va dedicada a mi querida Jennifer M. Arias
hasta Catacamas, Olancho; Honduras, C.A.
Gracias por existir nena!!!!!
Calificar esta versión:
Aviso: Este fichero es trabajo propio de su transcriptor y representa su interpretación personal de la canción. El material contenido en esta página es para exclusivo uso privado, por lo que se prohibe su reproducción o retransmisión, así como su uso para fines comerciales.