Deck The Halls, Villancicos (tablatura)

Autor: axelmaetal | 20292 visualizaciones



a------------------------------------------------
b---3--1--0------------0------01-----0-----------
c-----------2--0--2------0--2----2-----2--0-----0
d--------------------------------------------4---
e------------------------------------------------
f------------------------------------------------


a---------------------------------------------------------------
b---3--1--0------------0------01-----0--------------------------
c-----------2--0--2------0--2----2----2--0---0---0--1---0--1--3-
d------------------------------------------4---2------2---------2
e----------------------------------------------------------------
f---------------------------------------------------------------


a----------0--2--3--2--0---------------------0-0-0-0-----------
b-0--2--3------------------3--3-1-0-------0-----------3-1-0----
c-----------------------------------2-0-2---0----------------2-0
d--------------------------------------------------------------
e--------------------------------------------------------------
f--------------------------------------------------------------





Calificar esta versión:
Aviso: Este fichero es trabajo propio de su transcriptor y representa su interpretación personal de la canción. El material contenido en esta página es para exclusivo uso privado, por lo que se prohibe su reproducción o retransmisión, así como su uso para fines comerciales.