Campanitas, Villancicos (tablatura)

Autor: acdcserrate | 41059 visualizaciones



e|-------7-5-3------------7-5-3-0-|--0-0--8-7-5-----12-10-8-5-7--------|
B|--3--3-------3----3--3----------|-------------6-6--------------------|
G|--------------------------------|------------------------------------|
D|--------------------------------|------------------------------------|
A|--------------------------------|------------------------------------|
E|--------------------------------|------------------------------------|




e|-------7-5-3------------7-5-3-0-|--0-0--8-7-5--10-10-10-10-8-7-5-3------|
B|--3--3-------3----3--3----------|---------------------------------------|
G|--------------------------------|---------------------------------------|
D|--------------------------------|---------------------------------------|
A|--------------------------------|---------------------------------------|
E|--------------------------------|---------------------------------------|


e|--7-7-7---7-7-7---7-10---5-7--------|--8-8-8---8-8-7-7-7-5-5-7-5-3-10-|
B|-----------------------8------------|---------------------------------|
G|------------------------------------|---------------------------------|
D|------------------------------------|---------------------------------|
A|------------------------------------|---------------------------------|
E|------------------------------------|---------------------------------|


e|--7-7-7---7-7-7---7-10---5-7--------|--8-8-8---8-8-7-7-7-10-10-8-5-3--|
B|-----------------------8------------|---------------------------------|
G|------------------------------------|---------------------------------|
D|------------------------------------|---------------------------------|
A|------------------------------------|---------------------------------|
E|------------------------------------|---------------------------------|





Calificar esta versión:
Aviso: Este fichero es trabajo propio de su transcriptor y representa su interpretación personal de la canción. El material contenido en esta página es para exclusivo uso privado, por lo que se prohibe su reproducción o retransmisión, así como su uso para fines comerciales.