Alegres Cascabeles, Villancicos (tablatura)

Autor: Anónimo | 25416 visualizaciones



1----------------------------------------------
2-0-0-0--0-0-0-0-3---0-1-1-1--0-0-0--0----0--3-
3-----------------0-2------------------2-2-2---
4----------------------------------------------
5----------------------------------------------
6----------------------------------------------

1----------------------------------------------
2-0-0-0--0-0-0-0-3---0-1-1-1--0-0-0-3-3-1------
3-----------------0-2---------------------2-0--
4----------------------------------------------
5----------------------------------------------
6----------------------------------------------





Calificar esta versión:
Aviso: Este fichero es trabajo propio de su transcriptor y representa su interpretación personal de la canción. El material contenido en esta página es para exclusivo uso privado, por lo que se prohibe su reproducción o retransmisión, así como su uso para fines comerciales.