Abrazar Niebla, Viernes Verde (tablatura)

Autor: resuteru | 25480 visualizaciones



Intro:

e-1--1--0--1--1-----1--1--0--1--1----0--0--0---0--0--0-------------
B--1--1--1--1--1-----1--1--1--1--1---1--1--1---1--1--1-------------
G---2--2--2--2--2-----2--2--2--2--2--0--0--0---0--0--0-----(x2)----
D------------------------------------2--2--2---2--2--2-------------
A------------------------------------3--3--3---3--3--3-------------
E------------------------------------0--0--0---0--0--0-------------
                                       pm        pm

e-------------------------------------------15-12-13-12-13-13/15---
B-12-13-12-13-12-13/15---12-13-12-13-12-13-------------------------
G------------------------------------------------------------------
D------------------------------------------------------------------
A------------------------------------------------------------------
E------------------------------------------------------------------

e-17-17-17-15-15-15?13-13-13-12-13-13/15---------------------------
B-------------------------------------------12-13-12-13-12-13/15---
G------------------------------------------------------------------
D------------------------------------------------------------------
A------------------------------------------------------------------
E------------------------------------------------------------------

e------------------------------------------------------------------
B-12-13-12-13-12-13-12-10------------------------------------------
G-------------------------12-----9-9-11-12-14-12-------------------
D------------------------------------------------------------------
A------------------------------------------------------------------
E------------------------------------------------------------------
e------------------------------------------------------------------

Verso:

F                                             C
Quererte es como reducir la inmensidad a un segundo,
F                                          C
Es un alarido enviado con poder hacia el vacío,
F                                                    C
Son miles de estrellas dibujando un cazador toda una noche,
F                                                C
Es desgarrar el alma entera en soledad con un suspiro.

Coro:

Fsus4                     Dm
Déjame pedir a aquellos duendes jíbaros,
Fsus4                     Dm
Suplirán mis ojos cintas de color,
Fsus4                  Dm
Para que no te ocultes detrás del mar,
Fsus4                      Dm
Y puedan viajar mis sueños hacia ti.

e---0-1-3-1-0-------0-1-3-1-0----
B-3-----------3---3-----------3--
G--------------------------------
D--------------------------------
A--------------------------------
E--------------------------------

Verso:  (distorsión)

D#                      C
Arden mis plumas cerca de tu resplandor,
D#                      C
En la orilla del miedo te observaré,
D#                   C
Sentada justo en el centro de mi piel,
F#             G# D             C/D
Te veo gris solo, bésame un poco mas.

Intro:

e-------------------------------------------15-12-13-12-13-13b15---
B-12-13-12-13-12-13/15---12-13-12-13-12-13-------------------------
G------------------------------------------------------------------
D------------------------------------------------------------------
A------------------------------------------------------------------
E------------------------------------------------------------------

e-17-17-17-15-15-15?13-13-13-12-13-13/15---------------------------
B-------------------------------------------12-13-12-13-12-13/15---
G------------------------------------------------------------------
D------------------------------------------------------------------
A------------------------------------------------------------------
E------------------------------------------------------------------

e------------------------------------------------------------------
B-12-13-12-13-12-13-12-10------------------------------------------
G-------------------------12-----9-9-11-12-14-12-------------------
D------------------------------------------------------------------
A------------------------------------------------------------------
E------------------------------------------------------------------

Verso:   (distorsión)

F                                           C
Tocarte es abrazar la rala niebla de una montaña,
F                                                  C
Es un ritual, una oración con devoción para el incienso,

Coro:

Fsus4                     Dm
Déjame pedir a aquellos duendes jíbaros,
Fsus4                     Dm
Que soplen a mis oídos su dulce canción,
Fsus4                  Dm
Para que no te silencies guaya noche,
Fsus4                      Dm
Y puedan viajar mis sueños hacia ti.

Solo:

Gtr 1.

e------------------------------------------------------------------
B---6-8-8/10-10-8-6-6-8/10-8-13-10-13-13/15-13-10------------------
G-9----------------------------------------------------------------
D------------------------------------------------------------------
A------------------------------------------------------------------
E------------------------------------------------------------------

Gtr 2.

e------------------
B------------------
G------------------
D------------------
A-0-2-3-5-3-2------
E------------------

Gtr 1.

e------------------------------------------------------------------
B--------------------------8/10-8-8-10-11-10-----------------------
G-7-7/10-9-9-7-7/12-10-10------------------------------------------
D------------------------------------------------------------------
A------------------------------------------------------------------
E------------------------------------------------------------------

Gtr 2.

e------------------
B------------------
G------------------
D------------------
A-0-2-3-5-3-2------
E------------------

Gtr 1.

e-------------------------------|----------------------------------
B----13----11----10-------------|------13----11----10--------------
G-10----10----10----10-10-10-10-|-9-10----10----10-----10-10-10-10-
D-------------------------------|----------------------------------
A-------------------------------|---------------(x6)---------------
E-------------------------------|----------------------------------

e------------------------------------------------------------------
B-------13----11----13----11----13-11-13-13/15---------------------
G-9-10-----10----10----10----10------------------------------------
D------------------------------------------------------------------
A------------------------------------------------------------------
E------------------------------------------------------------------

e-------------------------|----------------------------------------
B-13-11-13-13-11-10-11-10-|-11-13-13/15-13-11-13-13-11-10-11-10----
G-------------------------|----------------------------------------
D-------------------------|---------------(x2)---------------------
A-------------------------|----------------------------------------
E-------------------------|----------------------------------------

Gtr 2.

e------------------------------------------------------------------
B------------------------------------------------------------------
G------------------------------------------------------------------
D-0-0-2-2-2-2h3-2-3-2-0------------------2-2-2-2h3-2-3-2-0---------
A-----------------------5/1-0-1-1/5-5-5----------------------------
E------------------------------------------------------------------

Verso:

F#             G#  D           C/D
Te veo gris solo, bésame un poco mas,
F#             G#  D           C/D
Me quieres gris solo, piénsame un poco mas.

e------------------------------------------------------------------
B-10-10-13-12-10----10-10-13-12-10---------------------------------
G-10-10-10-10-10----10-10-10-10-10---------------------------------
D------------------------------------------------------------------
A------------------------------------------------------------------
E------------------------------------------------------------------

e-0--0--1--0--0-----0--0--1--0--0----------------------------------
B--1--1--1--1--1-----1--1--1--1--1---------------------------------
G---0--0--0--0--0-----0--0--0--0?0---------------------------------
D------------------------------------------------------------------
A------------------------------------------------------------------
E------------------------------------------------------------------

Solo:

e-------------------------------------------15-12-13-12-13-13/15---
B-12-13-12-13-12-12/15---12-13-12-13-12-13-------------------------
G------------------------------------------------------------------
D------------------------------------------------------------------
A------------------------------------------------------------------
E------------------------------------------------------------------

e-13-12-12-12-13-12-13-12-13-12-13-12------------------------------
B-------------------------------------13-13-13-12-12h13p12-10------
G-------------------------------------------------------------12---
D------------------------------------------------------------------
A------------------------------------------------------------------
E------------------------------------------------------------------

e-0--0--1--0--0-----0--0--1--0--0-----0--0--1--0--0----------------
B--1--1--1--1--1-----1--1--1--1--1-----1--1--1--1--1---------------
G---0--0--0--0--0-----0--0--0--0--0-----0--0--0--0--0--------------
D------------------------------------------------------------------
A------------------------------------------------------------------
E------------------------------------------------------------------

e-0--0------------------------|----0-------------------------------
B--1--1---3-0----3-0----3-0---|----1-------------------------------
G---0--0------0------0------0-|----0-------------------------------
D-----------------------------|----2-------------------------------
A-----------------------------|----3-------------------------------
E-----------------------------|----0-------------------------------





Comentarios del colaborador: weno es mi primera cancion k subo ojala k les gusta cualkier duda mi correo es [email protected]

Calificar esta versión:
Aviso: Este fichero es trabajo propio de su transcriptor y representa su interpretación personal de la canción. El material contenido en esta página es para exclusivo uso privado, por lo que se prohibe su reproducción o retransmisión, así como su uso para fines comerciales.