Kirby Gourmet Race Stage, Video Juegos (tablatura)

Autor: JaLeAxx | 37723 visualizaciones



(intro)
E |---15---13-11--------------------11-13-----------------------|
B |--------------15-13-11-----13-15-------15--------------------|
G |-------------------------------------------------------------|
D |-------------------------------------------------------------|
A |-------------------------------------------------------------|
E |-------------------------------------------------------------|

(tema 1)
E |-------------------------------------------------------------|
B |--13---------------------------------------------------------|
G |-------12----------------------------------------------------|
D |------------13-12-10----10-12-13-10----10--------------------|
A |------------------------------------13----10-----------------|
E |-------------------------------------------------------------|

E |-------------------------------------------------------------|
B |--13---------------------------------------------------------|
G |-------12-----------------------10---------------------------|
D |------------13-12-10--10-12-13------12------10------10-------|
A |----------------------------------------13------10-----------|
E |-------------------------------------------------------------|

E |--20---------------------------------------------------------|
B |-------20----------------------------------------------------|
G |-------------20-1(b9)17----17-1(b9)20-17----17---------------|
D |-------------------------------------20----17----------------|
A |-------------------------------------------------------------|
E |-------------------------------------------------------------|

E |--20---------------------------------------------------------|
B |-------20--------18-20----------18---------------------------|
G |----------19/20--------17-18/1(b9)---1(b9)---16/17-----------|
D |--------------------------------------20---------------------|
A |-------------------------------------------------------------|
E |-------------------------------------------------------------|

(tema 2)
E |-------------------------------------------------------------|
B |----------------------------------------0--------------------|
G |----------------------------------1--3-----------------------|
D |--------------1--0-------------3-----------------------------|
A |-----------3--------3-------4--------------------------------|
E |--1--1--4--------------3--1--1-------------------------------|

E |---16-15--------16-18--20--15--------------------------------|
B |---------18--------------------16----------------------------|
G |-----------------------------------17------------------------|
D |-------------------------------------------------------------|
A |-------------------------------------------------------------|
E |-------------------------------------------------------------|

E |----------------------------------15-------------------------|
B |---18--18-18-16-15--16-18-16--18-----16----------------------|
G |-------------------------------------------------------------|
D |-------------------------------------------------------------|
A |-------------------------------------------------------------|
E |-------------------------------------------------------------|

E |-------------------------------------------------------------|
B |--------------------------------------------0----------------|
G |--------------------------------------1--3-------------------|
D |--------------1--0-----------------3-------------------------|
A |-----------3--------3-----------4----------------------------|
E |--1--1--4--------------3--1--1-------------------------------|

E |---16-15--------16-18--20--15--------------------------------|
B |---------18--------------------16----------------------------|
G |-----------------------------------17------------------------|
D |-------------------------------------------------------------|
A |-------------------------------------------------------------|
E |-------------------------------------------------------------|

E |-------------------------------------------------------------|
B |-15--15-15-15-18-15-----------13-----11----------------------|
G |---------------------15----15--------------------------------|
D |------------------------17-----------------------------------|
A |-------------------------------------------------------------|
E |-------------------------------------------------------------|

(tema 3)
E |-------------------------------------------------------------|
B |----------------8-8------------------------------------------|
G |--8--8-8-8-8-10------10-8---7-7-7-7-8-7----------------------|
D |-------------------------------------------------------------|
A |-------------------------------------------------------------|
E |-------------------------------------------------------------|

E |-------------------------------------------------------------|
B |-------------------------------------------------------------|
G |--8-7--------------7-8-8--7-----------------7----------------|
D |-------10-10-10-10----------10---8-8-8-8-10------------------|
A |-------------------------------------------------------------|
E |-------------------------------------------------------------|

E |-------------------------------------------------------------|
B |-------------------------------------------------------------|
G |-------------------------------------8-10-8------------------|
D |--10-8-------------8-10-10-8-------8--------8----------------|
A |-------11-11-11-11-----------11--10-10-----------------------|
E |-------------------------------------------------------------|

E |-------------------------------------------------------------|
B |--------------------(b9)-------------------------------------|
G |--8-8-8-8-10-11-11----11--10-10-10-10-11-10------------------|
D |-------------------------------------------------------------|
A |-------------------------------------------------------------|
E |-------------------------------------------------------------|

E |---15--------------------15-15-------------------------------|
B |------18--16-16-16-16-18-------18-16--15-15-15-15-16-15------|
G |-------------------------------------------------------------|
D |-------------------------------------------------------------|
A |-------------------------------------------------------------|
E |-------------------------------------------------------------|

E |-------------------------------------------------------------|
B |--16-15--------------15-16-16-15----------------15-----------|
G |-----17-17-17-17-------------17--15-15-15-15-17--------------|
D |-------------------------------------------------------------|
A |-------------------------------------------------------------|
E |-------------------------------------------------------------|

E |---------------------------------------15-15-15-15-18-15-15--|
B |--------------------------------16-18------------------------|
G |--17-15-------------15-17-17-17------------------------------|
D |--------18-18-18-18------------------------------------------|
A |-------------------------------------------------------------|
E |-------------------------------------------------------------|

E |-------------13-15----13-15----13-15-20--1(b9)---------------|
B |--18-16---15-------15-------15-------------------------------|
G |-------------------------------------------------------------|
D |-------------------------------------------------------------|
A |-------------------------------------------------------------|
E |-------------------------------------------------------------|





Calificar esta versión:
Aviso: Este fichero es trabajo propio de su transcriptor y representa su interpretación personal de la canción. El material contenido en esta página es para exclusivo uso privado, por lo que se prohibe su reproducción o retransmisión, así como su uso para fines comerciales.