Age Of Empires 2, Video Juegos (tablatura)

Autor: WOLFTATU | 38913 visualizaciones



e|-------------------------------------------------
B|-------------------------------------------------
G|-------------------------------------------------
D|-------------------------------------------------
A|------0--3--2--0---2-------0----3---2---0---5----
E|--0--------------------0-------------------------

e|-------------------------------------------------
B|-------------------------------------------------
G|-------------------------------------------------
D|-------------------------------------------------
A|------0--3--2--0---2---2---3---2-----------------
E|--0---------------------------------3-----5------





Calificar esta versión:
Aviso: Este fichero es trabajo propio de su transcriptor y representa su interpretación personal de la canción. El material contenido en esta página es para exclusivo uso privado, por lo que se prohibe su reproducción o retransmisión, así como su uso para fines comerciales.