Boa Sorte Pra Voce, Victor Y Leo (acordes)

Autor: fobenavi | 38385 visualizaciones

amcdmefg
Intro:
E|--------------------------------------------|
B|---1h0-----1---0----1-3-3h5--3h5-3-5--------|
G|-------2-----2---2--------------------------|
D|-2------------------------------------------|
A|--------------------------------------------|
E|--------------------------------------------|

E|--------------------------------------------|
B|---1h0----1---0----1-3-3h5--3h5-3-5---------|
G|-------2----2---2---------------------------|
D|-2------------------------------------------|
A|--------------------------------------------|
E|--------------------------------------------|

C                    Am
Pra você não foi sério
C                 Am
E se ainda te quero
           Dm
Sei que não dá mais
F
Já tentamos
G
Desisti
C                      Am
Você fez tudo errado
C                      Am
Sem me ver ao seu lado
           Dm
Você desprezou
F                       G
Quem apenas te deu valor

coro:
C                                  F
Eu já disse o que tinha pra dizer
                   Am
Não quis te perder
                 Dm
Fiz tudo por você
      G       C
E nada por mim
                      F
Se tinha que ser assim

Tudo bem
        Am
Já passou
                  Dm
Boa sorte pra você
G                   Am
É o fim do nosso amor
E|---------------------------------------------|
B|---1h0----1---0----1-3-3h5--3h5-3-5----------|
G|------2-----2---2----------------------------|
D|-2-------------------------------------------|
A|---------------------------------------------|
E|---------------------------------------------|
Calificar esta versión:
Aviso: Este fichero es trabajo propio de su transcriptor y representa su interpretación personal de la canción. El material contenido en esta página es para exclusivo uso privado, por lo que se prohibe su reproducción o retransmisión, así como su uso para fines comerciales.