El Hombre Del Piano, Victor Manuel (tablatura)

Autor: Anónimo | 14301 visualizaciones

 
ACORDES (El ASTERISCO indica donde va el bajeo)

  G    Bm/F#    Em    Em7    Em+6    C      A7   D7/F#   Em/D    D     D/C    D/B    D/A
E - 3  E - X  E - 0  E - 0  E - 0  E - 0  E - 0  E - 2  E - 0  E - 2  E - X  E - X  E - X  
B - 0  B - 3  B - 0  B - 0  B - 0  B - 1  B - 2  B - 1  B - 0  B - 3  B - 3  B - 3  B - 3
G - 0  G - 0  G - 0  G - 0  G - 0  G - 0  G - 0  G - 2  G - 0  G - 2  G - 2  G - 2  G - 2
D - 0  D - 2  D - 2  D - 0  D - 2  D - 2  D - 2  D - 0  D - 0* D - 0* D - X  D - X  D - X
A - 2  A - X  A - 2  A - 2* A - 4* A - 3* A - 0* A - 0  A - 2  A - 0  A - 3* A - 2* A - 0
E - 3* E - 2* E - 0* E - 0  E - 0  E - 0  E - 0  E - 2* E - 0  E - X  E - X  E - X  E - X


INTRO
           G        Bm/F#          Em C        D7/F#
E ------------------------------------------------------
B -0-h-1-h-3--3--3--3--1--0--1--0--------------1--0-----
G ---------0--------3--------------0--0-----0--2-----2--
D ---------0-----------------------2--2--2--------------
A ---------------------------------2--3-----------------
E ---------3--------2--------------------------2--------

   G              C              D                   C
E -------------------------------------------------------
B ----------0-----1--------1-----3--------3-----5--3---1- 
G -0-----0-----0--0-----0-----0--0-----0-----0--0------0-
D -0--0--------------2--------------4-----------4------2-
A ----------------3--------------5--------------5------3-
E -3-----------------------------------------------------

   G              C              D                   C
E -------------------------------------------------------|
B -0--------0-----1--------1-----3--------3-----5--3---1-|
G -0-----0-----0--0-----0-----0--0-----0-----0--0------0-|
D -0--0--------------2--------------4-----------4------2-|
A ----------------3--------------5--------------5------3-|
E -3-----------------------------------------------------|

G          Bm/F#          Em     Em/D 
Esta es la historia de un sábado 
C       A7        D7/F#
de no importa que mes,
        G         Bm/F#   Em    Em/D 
y de un hombre sentado al piano 
        C         D7/F#   G
de no importa que viejo café. 

           G        G/B            Em C        D7/F#
E ------------------------------------------------------
B -0-h-1-h-3--3--3--3--1--0--1--0--------------1--0-----
G ---------0--------3--------------0--0-----0--2-----2--
D ---------0-----------------------2--2--2--------------
A ---------------------------------2--3-----------------
E ---------3--------2--------------------------2--------

   G              C              D                   C
E -------------------------------------------------------
B ----------0-----1--------1-----3--------3-----5--3---1- 
G -0-----0-----0--0-----0-----0--0-----0-----0--0------0-
D -0--0--------------2--------------4-----------4------2-
A ----------------3--------------5--------------5------3-
E -3-----------------------------------------------------

   G              C              D                   C
E -------------------------------------------------------|
B -0--------0-----1--------1-----3--------3-----5--3---1-|
G -0-----0-----0--0-----0-----0--0-----0-----0--0------0-|
D -0--0--------------2--------------4-----------4------2-|
A ----------------3--------------5--------------5------3-|
E -3-----------------------------------------------------|

        G        Bm/F#        Em     Em/D  
Toma el vaso y le tiemblan las manos, 
    C           A7        D7/F#
apestando entre humo y sudor, 
      G             Bm/F#    Em       Em/D
y se agarra a su tabla de naúfrago 
   C            D7/F#      G
volviendo a su eterna canción. 

         Em    Em7   Em+6       Em     Em7   Em+6    D      D/C   D/B   D/A
E ----------------------------------------------------------------------------
B -----------0-----0-----0-----------0-----0-----0--------3-----3-----2-----2-
G ---------0-----0-----0-----------0-----0-----0---0----2-----2-----0-----0---
D -------2-----0-----------------2-----0--------------0-----------------------
A -------------------4-----------------------4--------------3-----2-----0-----
E -0-3-2-0-----------------0-3-2-0--------------------------------------------
         na nana  naranana       narana nara naaa  nananaaaaaaaaaaaaaa     

G         Bm/F#      Em       Em/D
Toca otra vez, viejo perdedor, 
C         A7        D
haces que me sienta bien, 
      G        Bm/F#     Em         Em/D
es tan triste la noche que tu canción
C        D7/F#     G 
sabe a derrota y a miel.

           G        G/B            Em C        D7/F#
E ------------------------------------------------------
B -0-h-1-h-3--3--3--3--1--0--1--0--------------1--0-----
G ---------0--------3--------------0--0-----0--2-----2--
D ---------0-----------------------2--2--2--------------
A ---------------------------------2--3-----------------
E ---------3--------2--------------------------2--------

   G              C              D                   C
E -------------------------------------------------------
B ----------0-----1--------1-----3--------3-----5--3---1- 
G -0-----0-----0--0-----0-----0--0-----0-----0--0------0-
D -0--0--------------2--------------4-----------4------2-
A ----------------3--------------5--------------5------3-
E -3-----------------------------------------------------

   G              C              D                   C
E -------------------------------------------------------|
B -0--------0-----1--------1-----3--------3-----5--3---1-|
G -0-----0-----0--0-----0-----0--0-----0-----0--0------0-|
D -0--0--------------2--------------4-----------4------2-|
A ----------------3--------------5--------------5------3-|
E -3-----------------------------------------------------| 

     G            Bm/F#        Em  Em/D  
Cada vez que el espejo en la pared
     C          A7       D7/F# 
le devuelve más joven la piel,
         G          Bm/F#       Em  Em/D 
se le encienden los ojos y su niñez 
C         D7/F#       G
viene a tocar junto a él;
      G             Bm/F#       Em     Em/D  
pero siempre hay borrachos con babas 
C        A7            D7/F#
que le recuerdan quien fue, 
       G       Bm/F#     Em    Em/D
el más joven maestro al piano 
   C        D7/F#  G
vencido por una mujer. 

         Em    Em7   Em+6       Em     Em7   Em+6    D      D/C   D/B   D/A
E ----------------------------------------------------------------------------
B -----------0-----0-----0-----------0-----0-----0--------3-----3-----2-----2-
G ---------0-----0-----0-----------0-----0-----0---0----2-----2-----0-----0---
D -------2-----0-----------------2-----0--------------0-----------------------
A -------------------4-----------------------4--------------3-----2-----0-----
E -0-3-2-0-----------------0-3-2-0--------------------------------------------
         na nana  naranana       narana nara naaa  nananaaaaaaaaaaaaaa     

     G         Bm/F#       Em   Em/D  
Ella siempre temió echar raíces
      C          A7      D7/F#
que pudieran sus alas cortar,
        G       Bm/F#    Em      Em/D 
y en la jaula metida, la vida se le iba 
  C          D7/F#     G
y quiso sus fuerzas probar;
     G         Bm/F#     Em   Em/D
no lamenta que de malos pasos
       C       A7     D7/F#
aunque nunca desea su mal, 
       G         Bm/F#     Em      Em/D
pero a ratos con furia, golpea el piano
     C               D7/F#     G 
y algunos que le han visto llorar.

         Em    Em7   Em+6       Em     Em7   Em+6    D      D/C   D/B   D/A
E ----------------------------------------------------------------------------
B -----------0-----0-----0-----------0-----0-----0--------3-----3-----2-----2-
G ---------0-----0-----0-----------0-----0-----0---0----2-----2-----0-----0---
D -------2-----0-----------------2-----0--------------0-----------------------
A -------------------4-----------------------4--------------3-----2-----0-----
E -0-3-2-0-----------------0-3-2-0--------------------------------------------
         na nana  naranana       narana nara naaa  nananaaaaaaaaaaaaaa     

G         Bm/F#      Em       Em/D
Toca otra vez, viejo perdedor, 
C         A7        D
haces que me sienta bien, 
      G        Bm/F#     Em         Em/D
es tan triste la noche que tu canción
C        D7/F#     G 
sabe a derrota y a miel.

           G        G/B            Em C        D7/F#
E ------------------------------------------------------
B -0-h-1-h-3--3--3--3--1--0--1--0--------------1--0-----
G ---------0--------3--------------0--0-----0--2-----2--
D ---------0-----------------------2--2--2--------------
A ---------------------------------2--3-----------------
E ---------3--------2--------------------------2--------

   G              C              D                   C
E -------------------------------------------------------
B ----------0-----1--------1-----3--------3-----5--3---1- 
G -0-----0-----0--0-----0-----0--0-----0-----0--0------0-
D -0--0--------------2--------------4-----------4------2-
A ----------------3--------------5--------------5------3-
E -3-----------------------------------------------------

   G              C              D                   C
E -------------------------------------------------------|
B -0--------0-----1--------1-----3--------3-----5--3---1-|
G -0-----0-----0--0-----0-----0--0-----0-----0--0------0-|
D -0--0--------------2--------------4-----------4------2-|
A ----------------3--------------5--------------5------3-|
E -3-----------------------------------------------------|
 
     G       Bm/F#      Em   Em/D  
El micrófono huele a cerveza 
     C           A7     D7/F#
y el calor se podría cortar, 
    G        Bm/F#     Em      Em/D
solitarios oscuros, buscando pareja
    C         D7/F#   G 
apurándose un sábado más; 
       G         Bm/F#      Em    Em/D  
hay un hombre aferrado a un piano
      C        A7        D7/F# 
la emoción empapada en alcohol,
      G          Bm/F#    Em       Em/D 
y una voz que le dice: 'pareces cansado
  C         D7/F#        G
y aun no ha salido ni el sol'.

         Em    Em7   Em+6       Em     Em7   Em+6    D      D/C   D/B   D/A
E ----------------------------------------------------------------------------
B -----------0-----0-----0-----------0-----0-----0--------3-----3-----2-----2-
G ---------0-----0-----0-----------0-----0-----0---0----2-----2-----0-----0---
D -------2-----0-----------------2-----0--------------0-----------------------
A -------------------4-----------------------4--------------3-----2-----0-----
E -0-3-2-0-----------------0-3-2-0--------------------------------------------
         na nana  naranana       narana nara naaa  nananaaaaaaaaaaaaaa     

G         Bm/F#      Em       Em/D
Toca otra vez, viejo perdedor, 
C         A7        D
haces que me sienta bien, 
      G        Bm/F#     Em         Em/D
es tan triste la noche que tu canción
C        D7/F#     G 
sabe a derrota y a miel.

FINAL
           G        G/B            Em C        D7/F#
E ------------------------------------------------------
B -0-h-1-h-3--3--3--3--1--0--1--0--------------1--0-----
G ---------0--------3--------------0--0-----0--2-----2--
D ---------0-----------------------2--2--2--------------
A ---------------------------------2--3-----------------
E ---------3--------2--------------------------2--------

   G              C              D                   C
E -------------------------------------------------------
B ----------0-----1--------1-----3--------3-----5--3---1- 
G -0-----0-----0--0-----0-----0--0-----0-----0--0------0-
D -0--0--------------2--------------4-----------4------2-
A ----------------3--------------5--------------5------3-
E -3-----------------------------------------------------

   G              C              D                   C
E -------------------------------------------------------|
B -0--------0-----1--------1-----3--------3-----5--3---1-|
G -0-----0-----0--0-----0-----0--0-----0-----0--0------0-|
D -0--0--------------2--------------4-----------4------2-|
A ----------------3--------------5--------------5------3-|
E -3-----------------------------------------------------|
Calificar esta versión:
Aviso: Este fichero es trabajo propio de su transcriptor y representa su interpretación personal de la canción. El material contenido en esta página es para exclusivo uso privado, por lo que se prohibe su reproducción o retransmisión, así como su uso para fines comerciales.