La Tormenta, Vicentico (tablatura)

Autor: nico567 | 19714 visualizaciones

Hola, esta es la tab de la cancion del nuevo album "Vicentico 5" "La tormenta"

4 5-5-5-------------------------5-5-5-----------
5 ------5-5----3-3----2-3-2---------------------
6 ----------------------------------------------

4 5-5-5-----------------------------------------
5 --------5-5----3-3--3-2-----------------------
6 ------------------------3---------------------

4 5-5-5-----------------------------------------
5 --------5-5----3-3----2-3-5-------------------
6 ----------------------------------------------

4 5-5-5-----------------------------------------
5 --------5-5----3-3--3-2-----------------------
6 ------------------------3---------------------

Esa es la intro.

Los acordes de la estrofa son

Sol Si7 Mim Do 

Puente Re

Luego en el estribillo la primera guitarra hace el punteo de la intro y la segunda los siguientes acordes

Sol Si7 Do Re

Luego este solo lo hace con distorcion:

1 -----------------------0----------------------------
2 ------------------4--------0--------------4---------
3 -------4-----------------------0--------------------
4 ----0----------4------------------2-----------------
5 ------------2-------------------------3-------------
6 -3--------------------------------------------------

Bueno eso fue todo gracias
Calificar esta versión:
Aviso: Este fichero es trabajo propio de su transcriptor y representa su interpretación personal de la canción. El material contenido en esta página es para exclusivo uso privado, por lo que se prohibe su reproducción o retransmisión, así como su uso para fines comerciales.