El Chofer, Vicente Fernandez (tablatura)

Autor: Allanix | 14600 visualizaciones

INTRO
1-0----0-0-0---0---0-0-0--0----0-0-0-0-------
2-0h2--2-0-0---0h2-2-0-0--0h2--2-0-0-2-------
3-2----2-2-2---2---2-2-2--2----2-2-2-2-------
4-2----2-2-2---2---2-2-2--2----2-2-2-2-------
5-0----0-0-0---0---0-0-0--0----0-0-0-0-------
6-0----0-0-0---0---0-0-0--0----0-0-0-0-------

      A                   D
Voy a arrancar, soy el chofer
      A                           E
manejaré en la noche, hasta el amanecer
      A               D
Tiempo no hay, para perder
               A        E          A
tengo un buen tramo de país que recorrer

       D              E
Desde Tijuana hasta Yucatán
       D              E
por carretera gano el pan
         A            D
voy a Torreón, voy a San Luís
         A                          E
rueda que rueda vuelta y vuelta soy feliz
         A           D
luego me voy a Monterrey
          A             E             A
siempre alerta por si algún burro o un buey

?Aguas   calientes y su feria de San Marcos, adiós paisano?

          A               E           D
E-5-5-7--7/9--9--9--9--9----7-7-7-7-7---5-5-5-5-5
B-7-7-9--9/10-10-10-10-10---9-9-9-9-9---7-7-7-7-7
G------------------------------------------------

          A               E           D                   A
E-5-5-7--7/9--9--9--9--9----7-7-7-7-7---5-5-5-5-5-5-5-5-5-5
B-7-7-9--9/10-10-10-10-10---9-9-9-9-9---7-7-7-7-7-7-7-7-7-7
G------------------------------------------------


       A               D
Estuve antier en Veracruz
          A                        E
Pase por Puebla, por favor baja tu luz

         A                 D
De norte a sur, voy por doquier
        A            E
voy a Morelos y a Guerrero
      A
Soy chofer

            D         E
De Ciudad Juárez a Parral
            D         E
y hasta el Distrito Federal
A
alguien me espera, en Reynosa
A
alguien me espera, en Toluca,
A
alguien me espera, en Cabo,
A
alguien me espera, en Hermosillo,
A
alguien me espera, en Tepic,
A
alguien me espera, en Huentitán,
         A   E     A
la carretera nacional

        D           E
Desde Laredo a Michoacán
        D           E
por carretera gano el pan
         A
Soy el chofer

También voy a Sonora, Sinaloa
Conaloa, Durango, Zacatecas,
Nayarit, Jalisco, Guanajuato,
Querétaro, Hidalgo, Colima
Tlaxcala, Oaxaca, Chiapas,
Tabasco, Campeche y Quintana Roo

Mientras se canta esto / va de fondo esto:

          A               E           D
E-5-5-7--7/9--9--9--9--9----7-7-7-7-7---5-5-5-5-5
B-7-7-9--9/10-10-10-10-10---9-9-9-9-9---7-7-7-7-7
G------------------------------------------------

          A               E           D
E-5-5-7--7/9--9--9--9--9----7-7-7-7-7---5-5-5-5-5-
B-7-7-9--9/10-10-10-10-10---9-9-9-9-9---7-7-7-7-7-
G------------------------------------------------

  A
E-5/9--9--9--7--5?5/9---9---9---7--5--5/9--9---9---7?5?5/9
B-7/10-10-10-9--7-7/10--10--10--9--7--7/10-10--10--9-7?7/10
G----------------------------------------------------
Calificar esta versión:
Aviso: Este fichero es trabajo propio de su transcriptor y representa su interpretación personal de la canción. El material contenido en esta página es para exclusivo uso privado, por lo que se prohibe su reproducción o retransmisión, así como su uso para fines comerciales.