La Marea, Vetusta Morla (tablatura)

Autor: Anónimo | 23269 visualizaciones

Afinación estándar| EADGBE

C -> DO
D -> Re
E -> MI
F -> Fa
G -> SOL
A -> La
B -> SI

Intro
1-------------------0-------|------------0--------------
2 -------3-----1-------1-----|-----1---1----1------1-3---
3 -----------2-----2-----2---|---2---2--------2--2-------
4 --0-0----0-----0-----------|-3-------------------------
5 ---------------------------|---------------------------
6/---------------------------|---------------------------

|----------0-------|--------5---3----------|
|-----3------3-----|------------------5~3--|
|---2-----2----2---|------4---4------------|
|-3-----3--------3-|-3/5------------5------|
|------------------|-----------------------|
|------------------|-----------------------|


Dm                   F
La marea me dejó arenas de plata
Bb                           Gm
que pondré en el reloj del tiempo que no pasa.
Dm                   F
La marea me dejó islas inundadas
Bb                       Gm
donde atrapar con mi red una historia de piratas.

Bb | F | Gm | Dm

Bb              F
La marea me dejó la piel cuarteada,
Gm                        Dm
la miel en los labios, las piernas enterradas.

Dm                   F
La marea me dejó maromas de un barco,
Bb                           Gm
algas tejidas en forma de desengaño.
Dm                   F
La marea me dejó unas conchas sin nombre
Bb
con que el niño hace un collar
         Gm                           Bb
de un alfabeto que no entiende el hombre.


Bb              F
La marea me dejó la piel cuarteada,
Gm                        Dm
la miel en los labios, las piernas enterradas.

Dm                   F
La marea me dejó cangrejos alados,
Bb                           Gm
burbujas de hielo y un libro en blanco.
Dm                   F
La marea me dejó los versos borrados,
Bb                      Gm
la tinta, un borrón, un papel mojado.


Bb              F
La marea me dejó la piel cuarteada,
Gm                        Dm
la miel en los labios, las piernas enterradas.

________________________________________________________

Espero poder enviar muchas más canciones...
Ya sois un poco más grandes vetustos. Gracias!
Alberto Alzira
Para dudas, sugerencias y correciones: sgalberto@gmail.com
Calificar esta versión:
Aviso: Este fichero es trabajo propio de su transcriptor y representa su interpretación personal de la canción. El material contenido en esta página es para exclusivo uso privado, por lo que se prohibe su reproducción o retransmisión, así como su uso para fines comerciales.