El Ukelele Del Tiempo, Vete A La Versh (tablatura)

Autor: DieInferos | 22660 visualizaciones

Espero que os guste  ^^"


e|--5----------5---------------5------------5---------|
B|------3---6------3---6---3-------3----6-------6----3|
G|----------------------------------------------------|
D|----------------------------------------------------|
A|----------------------------------------------------|
E|----------------------------------------------------|

e|------5-----7-----8----------8-----8----------8-----|
B|------------------5-------5--------5-------5--------|
G|------------------5----5-----------5----5-----------|
D|----------------------------------------------------|
A|----------------------------------------------------|
E|----------------------------------------------------|


e|------------5----------5----------10----------------|
B|------------5-------5----------6--------------------|
G|------------5----5----------7-----------------------|
D|----------------------------------------------------|
A|----------------------------------------------------|
E|----------------------------------------------------|
Calificar esta versión:
Aviso: Este fichero es trabajo propio de su transcriptor y representa su interpretación personal de la canción. El material contenido en esta página es para exclusivo uso privado, por lo que se prohibe su reproducción o retransmisión, así como su uso para fines comerciales.