You Really Got Me, Van Halen (tablatura)

Autor: NaLoP | 44081 visualizaciones



En riff
Intro:gG-A-A-G-A 

G-A-A-G-A  G-A-A-G-A- G-A-A-G-A- G-A-A-G-A

G-A-A-G-A  G-A-A-G-A- G-A-A-G-A- G-A-A-G-A-15

G-A-A-G-A  G-A-A-G-A- G-A-A-G-A-e--
                                b------------------------
                                g--4-4--2----------------
                                d----------3--2----------
                                a----------------3--2----
                                e---------------------3--
G-A-A-G-A  G-A-A-G-A- G-A-A-G-A-e--------------------------
                                b--------------------------
                                g--7-7--5------------------
                                d---------7--5-------------
                                a--------------7--5--3-----
                                e------------------------5-

A-B-B-A-B A-B-B-A-B- A-B-B-A-B A-B-B-A-B

D-E-E-D-E D-E-E-D-E D-E-E-D-E-g D-E-E-D-E-D

e--------------------------
b--------------------------
g--7-7--5------------------
d---------7--5-------------
a--------------7--5--3-----
e------------------------3-
y lo mismo del preincipio repetir artas veces 





Comentarios del colaborador: bueno esta cancion es muy buena pero falla un poco en lo que es punteo pero voy seguir y espero ganar plata chao insistanme viva el rock

Calificar esta versión:
Aviso: Este fichero es trabajo propio de su transcriptor y representa su interpretación personal de la canción. El material contenido en esta página es para exclusivo uso privado, por lo que se prohibe su reproducción o retransmisión, así como su uso para fines comerciales.