Eruption, Van Halen (tablatura)

Autor: xxblackxpinkxx | 16993 visualizaciones



     "Eruption", de Van Halen
____________________________________
·Album: "The Best Of Van Halen Vol. I"
·Dificultad: Intermedio/Avanzado
_____________________________________
Guitarra 1, Confuguración: 
Distorción: 75% 
Low: 10%
Med: 90%
High: 50%
Reverb: 70%
Pedal optativo.
Afinación: semi-tono más abajo.
______________________________________

Introducción:
Eb|-------------------------------------|
Bb|-------------------------------------|
Gb|--------2!----------5-7b*(9)r7p5-7b9-|
Db|--------2!------5-7------------------|
Ab|--------0!--2/7----------------------|
Eb|--142-------------------------------|


Eb|------------|
Bb|--5h8p5p0---|
Gb|----------8-|
Db|------------|
Ab|------------|
Eb|------------|X4

Eb|----5-----------------|
Bb|---5--8p5------5------|
Gb|--5-------7b(9)--r7p5-|
Db|----------------------|
Ab|----------------------|
Eb|----------------------|

Eb|------------------|
Bb|------------------|
Gb|--4-5-7-5h7p5p4---|
Db|----------------7-|
Ab|------------------|
Eb|------------------|

Eb|------------|
Bb|------------|
Gb|--4h7p5p4---|
Db|----------7-|
Ab|------------|
Eb|------------|4 veces
 

Eb|---------------------------------------------|
Bb|---------------------------------------------|
Gb|----4----------------------------------------|
Db|--7---7-6-5-4--------------------------------|
Ab|--------------7-6-5-3----------------------0-|
Eb|-----------------------0(Bend bajo Whammy)---|



Después:

Eb|------------2-2----------|
Bb|-------3----3-3-----2/19-|
Gb|--2----0----2-2----------|
Db|--2----0----0-0----------|
Ab|--0----------------------|
Eb|-------3-----------------|
(Acordes con batería)

Eb|-------17-|
Bb|---20b----|
Gb|----------|
Db|----------|
Ab|----------|
Eb|----------|X5
       Rake/
Eb|--------17-20-21----20p17-------------17---------17-20b(22)p17---17-|
Bb|--19--19---------19-------19b(21)r19~----20b(22)--------------20----|
Gb|-----x--------------------------------------------------------------|
Db|--------------------------------------------------------------------|
Ab|--------------------------------------------------------------------|
Eb|--------------------------------------------------------------------|
   

Eb|----------------|
Bb|--20b(22)p17----|
Gb|-------------19-|
Db|----------------|
Ab|----------------|
Eb|----------------|X3

Eb|-------------------------------16-17-20----------|
Bb|-----17 20b(22)-------16h18h20----------14h17h20-|
Gb|--19--------------/18----------------------------|
Db|-------------------------------------------------|
Ab|-------------------------------------------------|
Eb|-------------------------------------------------|

    Rake/
Eb|----17-20-17-20p1714-15p14------------------------------------|
Bb|---x------------------------17p14----14------------------------|
Gb|--x-------------------------------17----17b(19)r17p14h17-W~p14-|
Db|---------------------------------------------------------------|
Ab|---------------------------------------------------------------|
Eb|---------------------------------------------------------------|


Luego:

Eb|-----------------|-12------12t-16t-19t-17t-16t-17t-14t-16t-12t-|
Bb|-----------------|-15b(17)-------------------------------------|
Gb|-----------------|---------------------------------------------|
Db|-----------------|---------------------------------------------|
Ab|-----------------|---------------------------------------------|
Eb|--0(con  Whammy)-|---------------------------------------------|X2

Eb|--14t-h16p1412t-h14p1210t-h12p109t-h10p97t-h9p75t-h7p53t-h5p31t-|
Bb|-----------------------------------------------------------------------|
Gb|-----------------------------------------------------------------------|
Db|-----------------------------------------------------------------------|
Ab|-----------------------------------------------------------------------|
Eb|-----------------------------------------------------------------------|

Eb|--h3p1p0---------------------------------------------------|
Bb|---------5p3p1p0-------------------------------------------|
Gb|---------------2b(4)r2p1-----------------------------------|
Db|-----------------------------------------------------------|
Ab|-----------------------------------------------------------|
Eb|-------------------------0(Whammy off y luego On)-|

Eb|------------------------------------------------------------------|
Bb|--x---------------------------------------------------------------|
Gb|--x---------------5p0-------5p0-----10---9-7p0-----12----11-9tr10-|
Db|--x---5h7-7-7-7-7-----7-7-7-----7/8----8-------/10----10----------|
Ab|--x/7-------------------------------------------------------------|
Eb|------------------------------------------------------------------|

Eb|-------------------------------------------------------------|
Bb|-------------------------------------------------------------|
Gb|----------------------------------5p0------------------------|
Db|------------------5p0-------5p0-------9-7-----12----11-9tr11-|
Ab|------5h7-7-7-7-7-----7-7-7-----7---------9-9----10----------|
Eb|--5/7--------------------------------------------------------|

Eb|----------------------------------------------------------------------------|
Bb|----------------------------------------------------------------------------|
Gb|--x---------------5p0-------5p0---10p0-9-7p0-----12----9tr117tr95tr74tr6-|
Db|--x---5h7-7-7-7-7-----7-7-7-----8----8-------/10----10----------------------|
Ab|--x/7-----------------------------------------------------------------------|
Eb|----------------------------------------------------------------------------|


Aceleración:

     +
Eb|--------|
Bb|--9p2h5-|
Gb|--------|
Db|--------|
Ab|--------|
Eb|--------|X8
     +
Eb|---------|
Bb|--10p2h5-|
Gb|---------|
Db|---------|
Ab|---------|
Eb|---------|X8
     +
Eb|---------|
Bb|--10p4h7-|
Gb|---------|
Db|---------|
Ab|---------|
Eb|---------|X7
     +
Eb|---------|
Bb|--11p4h7-|
Gb|---------|
Db|---------|
Ab|---------|
Eb|---------|X1
     +
Eb|---------|
Bb|--12p5h9-|
Gb|---------|
Db|---------|
Ab|---------|
Eb|---------|X8
     +
Eb|---------|
Bb|--13p5h8-|
Gb|---------|
Db|---------|
Ab|---------|
Eb|---------|X8
     +
Eb|---------|
Bb|--15p5h8-|
Gb|---------|
Db|---------|
Ab|---------|
Eb|---------|X8
     +
Eb|----------|
Bb|--15p7h10-|
Gb|----------|
Db|----------|
Ab|----------|
Eb|----------|X7
     +
Eb|----------|
Bb|--16p7h10-|
Gb|----------|
Db|----------|
Ab|----------|
Eb|----------|X1
     +
Eb|----------|
Bb|--17p7h10-|
Gb|----------|
Db|----------|
Ab|----------|
Eb|----------|X8
     +
Eb|----------|
Bb|--17p9h12-|
Gb|----------|
Db|----------|
Ab|----------|
Eb|----------|X8
     +
Eb|-----------|  |
Bb|--17p12h15-|  |
Gb|-----------|  |
Db|-----------|  |
Ab|-----------|  |
Eb|-----------|X2|
     +           |
Eb|-----------|  |
Bb|--17p11h14-|  |
Gb|-----------|  |
Db|-----------|  |
Ab|-----------|  |
Eb|-----------|X2|
     +           |---X2
Eb|-----------|  |
Bb|--17p10h13-|  |
Gb|-----------|  |
Db|-----------|  |
Ab|-----------|  |
Eb|-----------|X2|
     +           |
Eb|----------|   |
Bb|--17p9h12-|   |
Gb|----------|   |
Db|----------|   |
Ab|----------|   |
Eb|----------|X2 |
     +
Eb|-----------|
Bb|--15p10h13-|
Gb|-----------|
Db|-----------|
Ab|-----------|
Eb|-----------|X2
     +
Eb|----------|
Bb|--15p9h12-|
Gb|----------|
Db|----------|
Ab|----------|
Eb|----------|X2
     +
Eb|----------|
Bb|--15p8h11-|
Gb|----------|
Db|----------|
Ab|----------|
Eb|----------|X2
     +
Eb|----------|
Bb|--15p7h10-|
Gb|----------|
Db|----------|
Ab|----------|
Eb|----------|X2
     +
Eb|----------|
Bb|--13p8h11-|
Gb|----------|
Db|----------|
Ab|----------|
Eb|----------|X2
     +
Eb|----------|
Bb|--13p7h10-|
Gb|----------|
Db|----------|
Ab|----------|
Eb|----------|X2
     +
Eb|---------|
Bb|--13p6h9-|
Gb|---------|
Db|---------|
Ab|---------|
Eb|---------|X2
     +
Eb|---------|
Bb|--13p5h8-|
Gb|---------|
Db|---------|
Ab|---------|
Eb|---------|X2
     +
Eb|---------|
Bb|--12p4h7-|
Gb|---------|
Db|---------|
Ab|---------|
Eb|---------|X8
     +
Eb|---------|
Bb|--12p5h8-|
Gb|---------|
Db|---------|
Ab|---------|
Eb|---------|X8
     +
Eb|---------|
Bb|--12p4h7-|
Gb|---------|
Db|---------|
Ab|---------|
Eb|---------|X8
     +
Eb|---------|   |
Bb|--12p5h8-|   |
Gb|---------|   |
Db|---------|   |
Ab|---------|   |
Eb|---------|X1 |
     +          |------8 veces
Eb|---------|   |
Bb|--12p4h7-|   |
Gb|---------|   |
Db|---------|   |
Ab|---------|   |
Eb|---------|X1 |

Eb|-------|
Bb|--12p5-|
Gb|-------|
Db|-------|
Ab|-------|
Eb|-------|

Eb|-----------------|
Bb|-----------------|
Gb|-----------------|
Db|-----------------|
Ab|------2-2--------|
Eb|--14-0-0 12*12*-|



(Fade Out y fin)





Calificar esta versión:
Aviso: Este fichero es trabajo propio de su transcriptor y representa su interpretación personal de la canción. El material contenido en esta página es para exclusivo uso privado, por lo que se prohibe su reproducción o retransmisión, así como su uso para fines comerciales.