Cathedral, Van Halen (tablatura)

Autor: BeATlFrAnK | 31935 visualizaciones



E|--0--1--0--0-----0--1--0--0-----|---------------------------------------------------------------------------|
B|--1--1--0--1-----1--1--0--1-----|-----4---------8---------12-----------16-----------12-------7------10------|
G|--0--2--0--0--4--0--2--0--0--4--|----4-4-------8-8-------12-12--------16-16--------12-12----7-7----10-10----|
D|--2--3--2--2--4--2--3--2--2--4--|---4---4-----8---8-----12---12------16---16------12---12--7---7--10---10---|
A|--3-----3--3--2--3--2--3--3--2--|--2-----2-4-6-----6-8-10-----10-12-14-----14-12-10-------5------8------10--|
E|--------3--------------3--------|---------------------------------------------------------------------------|

E|------------------------------------------------------------------------------------------------------------|
B|-------------------------4---------8---------12-----------16--------17------19------------------------------|
G|--7-4-------------------4-4-------8-8-------12-12--------16-16-----17-17---19-19-----21--21--21--21---------|
D|------5-3-5-3----------4---4-----8---8-----12---12------16---16---17---17-19---19---21--21--21--21----------|
A|--------------5-3-2---2-----2-4-6-----6-8-10-----10-12-14-----14-15-----17------19-21--21--21--21-----------|
E|------------------------------------------------------------------------------------------------------------|

E|---------------------------------------------------------------|
B|---------------------------------------------------------------|
G|---------------------------------------------------------------|
D|---------------------------------------------------------------|
A|--19-21-17-19-15-17-14-15-12-14-10-12-9-10-7-9-5-7-3-5-2-3-----|
E|---------------------------------------------------------------|

E|-------------------------------|-------------------------------|
B|-------------------------------|-------------------------------|
G|--------------7----------------|--------------7----------------|
D|----------------7-5-4----------|----------------7-5-4----------|
A|--------5-7-5---------5-7-5-7--|--------5-7-5---------5-7-5-7--|
E|--3-2-3------------------------|--3-2-3------------------------|     

E|-------------------------------|-------------------------------|
B|-------------------------------|-------------------------------|
G|--------------7----------------|--------------7----------------|
D|----------------7-5-4----------|----------------7-5-4----------|
A|--------5-7-5---------5-7-5-7--|--------5-7-5---------5-7-5-7--|
E|--3-2-3------------------------|--3-2-3------------------------|

E|-------------------------------|
B|-------------------------------|
G|-------------------------------|
D|-------------------------------|
A|--5-7-5-7-5-7-5-7-5-7-5-7-7~~--|
E|-------------------------------|





Calificar esta versión:
Aviso: Este fichero es trabajo propio de su transcriptor y representa su interpretación personal de la canción. El material contenido en esta página es para exclusivo uso privado, por lo que se prohibe su reproducción o retransmisión, así como su uso para fines comerciales.