Ain't Talkin' 'bout Love By Eddie, Van Halen (tablatura)

Autor: vudu | 31991 visualizaciones



Ain't Talkin' 'bout Love		

 
E|---------0-1-----3-----------------------
B|-----1-------1-----3---------------------
G|-------2-------2-------------------------
D|---2-------------------------------------
A|-0---------------------3~----2-3---------
E|---------------------3-------------------

E|-----------------------------------------
B|-------------0-------------------------0-
G|-2-----2-----0-------------2-----2-----0-
D|-2-----2-----0-------------2-----2-----0-
A|-0-----0------------3~-2-3-0-----0-------
E|------------------0----------------------

E|-----------------------------------------
B|-------------0-------------------------0-
G|-2-----2-----0-------------2-----2-----0-
D|-2-2-2-2-2-2-0-------------2-2-2-2-2-2-0-
A|-0-0-0-0-0-0--------3~-2-3-0-0-0-0-0-0---
E|------------------0----------------------

E|------------------------------------------
B|------------------------------------------
G|-h5-----5/7-7/9-9/12-12-------------------
D|------------------------------------------
A|------------------------------------------
E|------------------------------------------

E|---------------------------------------------------
B|---------------------------------------------------
G|-5--5/7-7/9-9/12-10/-------------------------------
D|---------------------------------------------------
A|-3--3/5-5/7-7/10-10/-------------------------------
E|---------------------------------------------------
 
E|-----------------------------------------
B|-------------0-------------------------0-
G|-2-----2-----0-------------2-----2-----0-
D|-2-2-2-2-2-2-0-------------2-2-2-2-2-2-0-
A|-0-0-0-0-0-0--------3~-2-3-0-0-0-0-0-0---
E|------------------0----------------------
  
E|---------------------------------------------------
B|--5-----5---5---5---5------------------------------
G|--7b9---9---9---9---9------------------------------
D|---------------------------------------------------
A|---------------------------------------------------
E|---------------------------------------------------

E|---------------------------------------------------
B|--5---5-5--5---------------------------------------
G|--7b9-9-9--9r7-------------------------------------
D|---------------------------------------------------
A|---------------------------------------------------
E|---------------------------------------------------


Primeira parte:
                 
I heard the news lady
All about your disease
Yeah you may have all you want baby
But I got something you need (Oh, Yeah)

Riff - Primeira Parte:
   
E|---------1--3--------------------------------------
B|-----1---1--3--------------------------------------
G|-------2-------------------------------------------
D|---2-----------------------------------------------
A|-0----------------3~--2-3--------------------------
E|----------------3----------------------------------
 
E|---------1--3----------------------------
B|-----1---1--3----------------------------
G|-------2---------------------------------
D|---2---------------\---------------------
A|-0-----------------\---------------------
E|-----------------------------------------


Refrão:
                    
Ain't talking bout love
                          
My love is rotten to the core
                   
Ain't talking bout love
                              
Just like I told you before, yeah before


E|-----------------------------------------
B|-------------0---------------------------
G|-2-----2-----0---------------------------  (4x)
D|-2-2-2-2-2-2-0---------------------------
A|-0-0-0-0-0-0--------3~-2-3---------------
E|------------------0----------------------
     


Primeira parte - com variação na letra:
                         Am
You know your semi-good looking
And on the streets again
Oh-yeah you think your really cooking baby
You better find yourself a friend, my friend

Refrão:
              
Ain't talking bout love
                        
My love is rotten to the core
                   
Ain't talking bout lo
Just like I told you before, a before
    
a before,a before

before

Refrão:
   
E|-----------------------------------------
B|-------------0---------------------------
G|-2-----2-----0---------------------------  (4x)
D|-2-2-2-2-2-2-0---------------------------
A|-0-0-0-0-0-0--------3~-2-3---------------
E|------------------0----------------------
     

E|------------------------------------------
B|-5-5/8-8/10-10----------------------------
G|---------------9~-------------------------
D|------------------------------------------
A|------------------------------------------
E|------------------------------------------

Solo:
E|-0---0-----0--0--0--0------------------------------
B|-5/8-8/10--10-10-10-10/12~-------------------------
G|---------------------------------------------------
D|---------------------------------------------------
A|---------------------------------------------------
E|---------------------------------------------------

E|-0---0----0--0---0--0---0--------------------------
B|-5/8-8/10-10-12--13-12--8\5------------------------
G|---------------------------------------------------
D|---------------------------------------------------
A|---------------------------------------------------
E|---------------------------------------------------

E|-0---0--0--0--0--0-----0--0--0--0------------------
B|-5/8-10-10-12-13-13/15-13-15-12-15/17-17\----------
G|---------------------------------------------------
D|---------------------------------------------------
A|---------------------------------------------------
E|---------------------------------------------------

E|---------------------------------------------------
B|-17h20p17----17h20p17----17h20p17----17h20p17------
G|----------19----------19----------19----------19---
D|---------------------------------------------------
A|---------------------------------------------------
E|---------------------------------------------------
           
E|---------------------------------------------------
B|---------------------------------------------------
G|-19b21-21r19p14-0----------------------------------
D|---------------------------------------------------
A|---------------------------------------------------
E|---------------------------------------------------


Refrão:
                    
Ain't talking bout love
                        
My love is rotten to the core
                   
Ain't talking bout love
                      
Just like I told you before, a before

Refrão:
  
E|-----------------------------------------
B|-------------0---------------------------
G|-2-----2-----0---------------------------  (4x)
D|-2-2-2-2-2-2-0---------------------------
A|-0-0-0-0-0-0--------3~-2-3---------------
E|------------------0----------------------
     

Segunda parte:
              
I been to the edge
And there I stood and looked down
You know I lost a lot of friends there baby

I got no time to mess around
                                  
So if you want it, I gotta cut you free baby
                 
I gotta cut you free baby (3x)

Segunda Parte:
  
E|-----------1-----3-----------------------
B|-----1-------1-----3---------------------
G|-------2-------------0------------------- (4x)
D|---2-------------------------------------
A|-O-----------------------3~~-2-3---------
E|-----------------------3-----------------
  
E|-------------------------------------------
B|-X?X------5---12--X--X--5-------7--12------
G|-2?2----5---7-----2--2----5-----------12---
D|-2?2--5-----------2--2------5-7----------12
A|-0?0--------------0--0---------------------
E|-------------------------------------------
  
E|-----------------------------------------
B|-X?X------5--5----X--X-------5-------5---
G|-2?2----5------5--2--2-----5-------5-----
D|-2?2--5-----------2--2---5-------5-------
A|-0?0--------------0--0-------------------
E|-----------------------------------------
   
E|-----------------------------------------
B|-------------0-------------------------0-
G|-2-----2-----0-------------2-----2-----0-
D|-2-2-2-2-2-2-0-------------2-2-2-2-2-2-0-
A|-0-0-0-0-0-0--------3~-2-3-0-0-0-0-0-0---
E|------------------0----------------------
   
E|------------------------------------------
B|------------------------------------------
G|-h5-----5/7-7/9-9/12-12-------------------
D|------------------------------------------
A|------------------------------------------
E|------------------------------------------
  
E|-----------------------------------------
B|-------------0---------------------------
G|-2-----2-----0---------------------------
D|-2-2-2-2-2-2-0---------------------------
A|-0-0-0-0-0-0--------3~-2-3---------------
E|------------------0----------------------
   
E|-----------------------------------------
B|-------------0-------------------------0-
G|-2-----2-----0-------------2-----2-----0- (2x)
D|-2-2-2-2-2-2-0-------------2-2-2-2-2-2-0-
A|-0-0-0-0-0-0--------3~-2-3-0-0-0-0-0-0---
E|------------------0----------------------
   
E|-17----17-17-17----17-17-17------------------------
B|-20b22-22-22-20b22-22-22-22------------------------
G|---------------------------------------------------
D|---------------------------------------------------
A|---------------------------------------------------
E|---------------------------------------------------


Refrão:
                    
Ain't talking bout love
                        
My love is rotten to the core
                    
Ain't talking bout love
                               
Just like I told you before , before, before

                  
Ain't talking bout love
                       
Don't wanna talk about love
                      
Don't even talk about love
                        
Ain't gonna talk about love, no more, no more

Solo 2:
                                      
E|---------------------------------------------------
B|-17h20p17----17h20p17----17h20p17----17h20p17------
G|----------19----------19----------19----------19---
D|---------------------------------------------------
A|---------------------------------------------------
E|-------------------------------------------------0-


Hey, Hey, Hey, (9x)

  
E|-----------------------------------------
B|-------------0--5----8-----10------------
G|-2-----2-----0--7b9--10b12-12b14---------
D|-2-2-2-2-2-2-0---------------------------
A|-0-0-0-0-0-0-----------------------------
E|-----------------------------------------
   
E|-----------------------------------------
B|-------------0---------------------------
G|-2-----2-----0---------------------------
D|-2-2-2-2-2-2-0---------------------------
A|-0-0-0-0-0-0--------3~-2-3---------------
E|------------------0----------------------
 
E|-----------------------------------------
B|-------------0---------------------------
G|-2-----2-----0---------------------------
D|-2-2-2-2-2-2-0---------------------------
A|-0-0-0-0-0-0--------3~-------------------
E|------------------0----------------------

Riff Final:

  alav...                  
E|-----------------------------------------
B|-----------------------------------------
G|-2---------------------------------------
D|-2---4--5-----------2---4--2-------------
A|-0---2--3------0--2-0---2--2-------------
E|-----------0-3-------------0-------------
                        
E|----------------------3--------7---------
B|----------------------3--------7---------
G|----------------------0--------7---------
D|-2---4--5---------2---2--------6---------
A|-0---2--3-----0-2-0---2--------7---------
E|----------0-2---------0------------------

Ain?t Talking 'Bout Love es una canción de la banda de Hard rock Van Halen. Apareció en el álbum homónimo con el que debutaron en el panorama musical en 1978.
Cuando Eddie Van Halen escribió la canción un año antes de que el álbum viera la luz, no la consideró lo suficientemente buena como para mostrársela a sus compañeros de grupo. Sin embargo, se convirtió en uno de los singles del primer álbum y en una de las canciones mas conocidas de la banda.
Además, la canción es una de las pocas en las que Sammy Hagar (que reemplazó con anterioridad a David Lee Roth) estuvo dispuesto a cantar en concierto a mediados de los ochenta.





Comentarios del colaborador: que buena rola

Calificar esta versión:
Aviso: Este fichero es trabajo propio de su transcriptor y representa su interpretación personal de la canción. El material contenido en esta página es para exclusivo uso privado, por lo que se prohibe su reproducción o retransmisión, así como su uso para fines comerciales.