La Yaquesita, Valentin Elizalde (tablatura)

Autor: angel1k198 | 29440 visualizaciones

Una cancion bien chingona aqui les dejo el requinto 


1/---3-3-2-3-2-3-3-----3-3---3-2-2---2-2---2---2-2-----2-3/
2/-3-5-5-3-5-3-5-5-3-5-4-5-5-5-3-3-3-3-3-5-3-5-3-3-3-5-3-5/
3/-4---------------4-5-----5-------4-----5---5-----4-5----/
4/--------------------------------------------------------/
5/--------------------------------------------------------/
6/--------------------------------------------------------/

1/-------------------------2-5-5-2-3---2-2-----2-3--------/
2/-3-1-3-1-3-3-5-3-5-3-5-5-3-7-7-3-5-5-3-3-3-5-3-5-3-3-1-0/
3/-4-2-4-2-4-4-5-4-5-4-5-5-----------5-----4-5-----4-4-2-0/
4/--------------------------------------------------------/
5/--------------------------------------------------------/
6/--------------------------------------------------------/

Comentarios del colaborador: Raspele copaaaa.

Calificar esta versión:
Aviso: Este fichero es trabajo propio de su transcriptor y representa su interpretación personal de la canción. El material contenido en esta página es para exclusivo uso privado, por lo que se prohibe su reproducción o retransmisión, así como su uso para fines comerciales.