Nicotina, Vainilla (tablatura)

Autor: alonxxo_estrambotico | 26575 visualizaciones



pzz aqa zta la rola zuena aqa todo buena vibra:

Intro:

e------------------------------
B-3--------3--------3--------3-
G-----0--------0--------0------
D---4---4----4---4----4---4----
A-2--------2--------2--------2-
E------------------------------

Verso:

e-----------------|-----------------|-----------------|-----------------|
B-3-------3-----3-|-2-------2-----2-|-0-------0-------|-----------------|
G-----0-------0---|-----0-------0---|-----0-------0---|-----2-----------|
D---4---4---4-----|---2---2---2-----|---0---0---0---0-|---4---4---4---4-|
A-2-------2-----2-|-0-------0-----0-|-----------------|-5-------5---4---|
E-----------------|-----------------|-3-------3-------|-----------------|

e-----------------|-----------------|-----------------|-----------------|
B-3-------3-----3-|-2-------2-----2-|-0-------0-------|---------3-------|
G-----0-------0---|-----0-------0---|-----0-------0---|-----0-------0---|
D---4---4---4-----|---2---2---2-----|---0---0---0---0-|---4---4---4---4-|
A-2-------2-----2-|-0-------0-----0-|-----------------|-2---------------|
E-----------------|-----------------|-3-------3-------|-----------------|


zto va qon el piano pro io lo zaqe azii

e--------------|
B--------------|
G-3-4-6-9-/----|
D--------------|
A--------------|
E--------------|
Interlude:
e---------|---------|-----------------|-----------------|
B-3-----3-|-2-----2-|-1-------1-----1-|-0-------0-------|
G-----0---|-----0---|-----0-------0---|-----0-------0---|
D---4-----|---2-----|-0-0---0---0-----|---0---0---0---0-|
A-2-----2-|-0-----0-|-----------------|-----------------|
E---------|---------|-----------------|-3---------------|

                  Em

Luego me despierto

A                     D

VEo tu foto junto a mi

G                    Em

Me veo en el espejo

F#                 Bm

Y solo yo estoy ahi


                  Em

No puedo hacer nada

A                  D

Ya no puedo sonreir

G                    Em

Busco en mi almohada

F#                  Bm

Nicotina y a olvidar

I luegho ia ze repite el intterlude
xD





Calificar esta versión:
Aviso: Este fichero es trabajo propio de su transcriptor y representa su interpretación personal de la canción. El material contenido en esta página es para exclusivo uso privado, por lo que se prohibe su reproducción o retransmisión, así como su uso para fines comerciales.