Seven, Vagiant (tablatura)

Autor: maskla | 29069 visualizaciones

Verso
G|--------------------------------------------------------------|
D|--------------------------------------------------------------|
A|-2-2222222-(X4)-------------------------------2-2222222-(X4)--|
E|----------------4-444444-(X4)--0-0000000-(X4)-----------------|


Pre coro
G|------------------------------------------------------------------|
D|------------------------------------------------------------------|
A|-77-xx-77-xxxxxx-77-xx-77-xxxxxx----------------------------------|
E|---------------------------------77777777777777777777777777777----|


G|------------------------------------------------------------------|
D|------------------------------------------------------------------|
A|-77-xx-77-xxxxxx-77-xx-77-xxxxxx-9-9-9-9-9-9-9-9-9-9-9-9-9-9------|
E|------------------------------------------------------------------|
                                     
G|------------------------------------------------------------------|
D|------------------------------------------------------------------|
A|-9-7-6-4----------------------------------------------------------|
E|------------------------------------------------------------------|


Coro
G|------------------------------------------------------------------------|
D|------------------------------------------------------------------------|
A|-2-222222-(X4)-------------------------------2222222-------222222222222-|
E|---------------4-444444-(X4)---0-000000-(X4)--------2222222-------------|


Verso 2
G|--------------------------------------------------------------|
D|--------------------------------------------------------------|
A|-2-2222222-(X4)-------------------------------2-2222222-(X4)--|
E|----------------4-444444-(X4)--0-0000000-(X4)-----------------|


Pre-coro
G|------------------------------------------------------------------|
D|------------------------------------------------------------------|
A|-77-xx-77-xxxxxx-77-xx-77-xxxxxx----------------------------------|
E|---------------------------------77777777777777777777777777777----|

G|------------------------------------------------------------------|
D|------------------------------------------------------------------|
A|-77-xx-77-xxxxxx-77-xx-77-xxxxxx-9-9-9-9-9-9-9-9-9-9-9-9-9-9------|
E|------------------------------------------------------------------|
                                 
G|------------------------------------------------------------------|
D|------------------------------------------------------------------|
A|-9-7-6-4----------------------------------------------------------|
E|------------------------------------------------------------------|


Coro
G|------------------------------------------------------------------------|
D|------------------------------------------------------------------------|
A|-2-222222-(X4)-------------------------------2222222-------222222222222-|
E|---------------4-444444-(X4)---0-000000-(X4)--------2222222-------------|


Puente
G|---------------------------------------------------------------------|
D|---------------------------------------------------------------------|
A|-2~-------------------------------2~-----------22222222222222222-----|
E|------------4~----------0~--------------2~---------------------------|
 Ultimo Coro
G|------------------------------------------------------------------------|
D|------------------------------------------------------------------------|
A|-2-222222-(X4)-------------------------------2222222-------222222222222-|
E|---------------4-444444-(X4)---0-000000-(X4)--------2222222-------------|
Calificar esta versión:
Aviso: Este fichero es trabajo propio de su transcriptor y representa su interpretación personal de la canción. El material contenido en esta página es para exclusivo uso privado, por lo que se prohibe su reproducción o retransmisión, así como su uso para fines comerciales.