Monstruo Verde, Ultrasonicas (tablatura)

Autor: xxxxxxxxxheavi_metalxxxxxxx | 37184 visualizaciones

1|-------------------------------------------------------------|
2|-------------------------------------------------------------|
3|-------------------------------------------------------------|
4|--------------------------000-32-000--32---------------------|
5|-000-32--000-32----------------------------------------------|
6|-------------------------------------------------------------|

1|-------------------------------------------------------------|
2|-------------------------------------------------------------|
3|-------------------------------------------------------------|
4|-------------------------------------------------------------|
5|-------------------------------------------------------------|
6|-000-3-2-0000000-3-2-----------------------------------------|

1|-------------------------------------------------------------|
2|-------------------------------------------------------------|
3|-------------------------------------------------------------|
4|---------------00-23--00-23----------------------------------|
5|-00-23--00-23------------------------------------------------|
6|-------------------------------------------------------------|

1|-------------------------------------------------------------|
2|-------------------------------------------------------------|
3|-------------------------------------------------------------|
4|---------------------00-23-20--00-23-20----------------------|
5|-00-23-20--00-23-20------------------------------------------|
6|-------------------------------------------------------------|

Comentarios del colaborador: ta chida chequenla

Calificar esta versión:
Aviso: Este fichero es trabajo propio de su transcriptor y representa su interpretación personal de la canción. El material contenido en esta página es para exclusivo uso privado, por lo que se prohibe su reproducción o retransmisión, así como su uso para fines comerciales.