After Tonight, Ub40 (tablatura)

Autor: juanchovidrd | 38356 visualizaciones

intro;
  G|-----------------------------------------------------|
  D|-----------------------------------------------------|
  A|------8-8-8-8--8-8--6--8--------1-1-1-1--1-1--0--1---|
  E|--6------------------------\-1-----------------------|

  G|-----------------------------------------------------|
  D|-----------------------------------------------------|
  A|------8-8-8-8--8-8--6--8--------1-1-1-1-1-1--4--4--3-|
  E|--6------------------------\-1-----------------------|


     verse/chorus;
  G|---------------------------------------------------|
  D|---------------------------------------------------|
  A|------8-8-8-8--8-8--6--8-------1-1-1-1--1-1--0--1--|
  E|--6-----------------------\-1----------------------|


     bridge;
  G|-----------------------------------------------------------|
  D|-----------------------------------------------------------|
  A|--5-5-5-5-5-5-5-5-5-5-----5--5-\-3-3-3-3-3-3-3-3-3-3-----3-|
  E|-----------------------5------------------------------3----|

  G|------------------------------------------------------------|
  D|------------------------------------------------------------|
  A|---------------------3--3-----3--\-1-1-1-1-1-1-1-1--4--4--3-|
  E|--\-1-1-1-1-1-1-1-1--------1--------------------------------|

Comentarios del colaborador: espero les guste

Calificar esta versión:
Aviso: Este fichero es trabajo propio de su transcriptor y representa su interpretación personal de la canción. El material contenido en esta página es para exclusivo uso privado, por lo que se prohibe su reproducción o retransmisión, así como su uso para fines comerciales.