Where The Streets Have No Name, U2 (tablatura)

Autor: Mike78 | 26766 visualizaciones



WHERE THE STREETS HAVE NO NAME
es una buena cancion, disfruten!

Intro


1-------10------------------10-
2----------10------------10----
3-------------12--11--12-------
4------------------------------
5------------------------------
6------------------------------

                                                      

1---10--10--10--10--10--10-|-10--10--10--10--10--10--10--10--10--10--10--10-
2---10--10--10--10--10--10-|-10--10--10--10--10--10--10--10--10--10--10--10-
3---12--12--12--12--12--12-|-12--11--12--12--11--12--12--11--12--12--11--12-
4--------------------------|------------------------------------------------
5--------------------------|------------------------------------------------
6--------------------------|------------------------------------------------

 

1---10--10--10--10--10--10--10--10--10--10--10--10--10--10--10--10--10--10--10-
2---10--10--10--10--10--10--10--10--10--10--10--10--10--10--10--10--10--10--10-
3---12--11--12--12--11--12--12--11--12--12--11--12--12--11--12--12--11--12--12-
4------------------------------------------------------------------------------
5------------------------------------------------------------------------------
6------------------------------------------------------------------------------

 

1---10--10--10--10--10--10--10--10-|-12--12--12--12--12--12--12--12-
2---10--10--10--10--10--10--10--10-|-10--10--10--10--10--10--10--10-
3---12--12--12--12--12--12--12--12-|-12--12--11--12--12--11--12--12-
4----------------------------------|--------------------------------
5----------------------------------|--------------------------------
6----------------------------------|--------------------------------


X= muted strings


1---X-X-X-X-X-X-X---2-2-2---X-X-X-X-X-X----2--
2---X-X-X-X-X-X-X---3-3-3---X-X-X-X-X-X----3--
3---X-X-X-X-X-X-X---2-2-2---X-X-X-X-X-X----2--
4---X-X-X-X-X-X-X---0-0-0---X-X-X-X-X-X----0--
5---X-X-X-X-X-X-X---0-0-0---X-X-X-X-X-X----0--
6---X-X-X-X-X-X-X-----------X-X-X-X-X-X-------


I want to run.....

       G         Bm            A
1----3-3-3-----2-2-2------0-0-0-0-0-0-0-
2----2-2-2-----3-3-3------2-2-2-2-3-3-2-
3----0-0-0-----4-4-4------2-2-2-2-2-2-2-
4----0-0-0-----4-4-4------2-2-2-2-2-2-2-
5----3-3-3-----2-2-2------0-0-0-0-0-0-0-
6----3-3-3-----2-2-2--------------------


I want to reach out...


1---10--10--10--10--10--10--10--10------12--12--12--12--12--12--12--12-
2---10--10--10--10--10--10--10--10------10--10--10--10--10--10--10--10-
3---12--12--12--12--12--12--12--12------12--12--11--12--12--11--12--12-
4----------------------------------------------------------------------
5----------------------------------------------------------------------
6----------------------------------------------------------------------


Where the streets have no name


1---X-X-X-X-X-X-X-X-X-X---------0--------X-X-X-X-X-X-X-X-X---------0------X-X-
2---X-X-X-X-X-X-X-X-X-X------3----3------X-X-X-X-X-X-X-X-X------3----3----X-X-
3---X-X-X-X-X-X-X-X-X-X----2--------2----X-X-X-X-X-X-X-X-X----2--------2--X-X-
4---X-X-X-X-X-X-X-X-X-X--0------------0--X-X-X-X-X-X-X-X-X--0-------------X-X-
5---X-X-X-X-X-X-X-X-X-X------------------X-X-X-X-X-X-X-X-X----------------X-X-
6---X-X-X-X-X-X-X-X-X-X------------------X-X-X-X-X-X-X-X-X----------------X-X-

 

I want to feel sunlight on my face......

 

1----X-X-X-X-X------------------0----
2----X-X-X-X-X------3---3-----3------
3----X-X-X-X-X----0---0-----0--------
4----X-X-X-X-X--4----4----4----------
5----X-X-X-X-X-----------------------
6----X-X-X-X-X-----------------------

      

without a trace.........

 

1-----3----3-3---2-2-2-2-2-2---0-0-0-0-0-0-0-
2-----2----3-3---3-3-3-3-3-3---3-3-3-3-2-2-2-
3-----3----0-0---4-4-4-4-4-4---2-2-2-2-2-2-2-
4-----0----0-0---4-4-4-4-4-4---2-2-2-2-2-2-2-
5--------- 2-2---2-2-2-2-2-2---0-0-0-0-0-0-0-
6--------- 3-3---2-2-2-2-2-2-----------------

 

I want to take shelter into the rain

 

1---10--10--10--10--10--10--10--10----12--12--12--12--12--12--12--12-
2---10--10--10--10--10--10--10--10----10--10--10--10--10--10--10--10-
3---12--12--12--12--12--12--12--12----12--12--11--12--12--11--12--12-
4----------------------------------------------------------------------
5----------------------------------------------------------------------
6----------------------------------------------------------------------

 

Where the streets have no name

 

1----5-5-5-5--3-3-3-3--2-2-2-2-----
2----3-3-3-3--3-3-3-3--3-3-3-3-----
3----0-0-0-0--0-0-0-0--0-0-0-0-----
4----------------------------------
5----------------------------------
6----------------------------------

 

Where the streets have no name

1----5-5-5-5--3-3-3-3--2-2-2-2------
2----3-3-3-3--3-3-3-3--3-3-3-3------
3----0-0-0-0--0-0-0-0--0-0-0-0------
4-----------------------------------
5-----------------------------------
6-----------------------------------

 

Where the streets....

We're still ...


1----5-5-5-5--3-3-3-2-3-3-3-2-3-2-3-2---5-5-5--3-3-2-3-2-3
2----3-3-3-3--3-3-3-3-3-3-3-3-3-3-3-3---3-3-3--3-3-3-3-3-3
3----0-0-0-0--0-0-0-0-0-0-0-0-0-0-0-0---0-0-0--0-0-0-0-0-0
4---------------------------------------------------------
5---------------------------------------------------------
6---------------------------------------------------------

This bit is cool. It takes a bit of practice. i advise you to listen
 to joshua tree version to get the full effect.


Then burning down love................

 

1----5-5-5-5--3-3-3-3--2-2-2-2------
2----3-3-3-3--3-3-3-3--3-3-3-3------
3----0-0-0-0--0-0-0-0--0-0-0-0------
4-----------------------------------
5-----------------------------------
6-----------------------------------


And when I go...........

1----5-5-5-5--3-3-3-3--2-2-2-2------
2----3-3-3-3--3-3-3-3--3-3-3-3------
3----0-0-0-0--0-0-0-0--0-0-0-0------
4-----------------------------------
5-----------------------------------
6-----------------------------------

I go there........


It's all...

 

1---10--10--10--10--10--10--10--10--10--10--10--10--10--10--10--10--10--10--10-
2---10--10--10--10--10--10--10--10--10--10--10--10--10--10--10--10--10--10--10-
3---12--11--12--12--11--12--12--11--12--12--11--12--12--11--12--12--11--12--12-
4------------------------------------------------------------------------------
5------------------------------------------------------------------------------
6------------------------------------------------------------------------------

 

...I can do


Use tremelo arm here to get right effect


1--2-------X-X-X-X-X-X-X-
2--3-------X-X-X-X-X-X-X-
3--2-------X-X-X-X-X-X-X-
4--0-------X-X-X-X-X-X-X-
5--0-------X-X-X-X-X-X-X-
6----------X-X-X-X-X-X-X-

 

The cities ......

1--2--
2--3--
3--2--
4--0--
5-----
6-----

 

...and blown by the wind

 

1--3-3-3-3-3---2-2-2-2-2-2---0-0-0-0-0-0-0-
2--3-3-0-3-0---2-2-3-2-3-3---0-2-2-2-3-3-2-
3--0-0-0-0-0---4-4-4-4-4-4---0-2-2-2-2-2-2-
4--0-0-0-0-0---4-4-4-4-4-4---0-2-2-2-2-2-2-
5--2-2-2-2-2---2-2-2-2-2-2---0-0-0-0-0-0-0-
6--3-3-3-3-3---2-2-2-2-2-2-----------------

 

Trampled in dust......

 


1---10--10--10--10--10--10--10--10------12--12--12--12--12--12--12--12-
2---10--10--10--10--10--10--10--10------10--10--10--10--10--10--10--10-
3---12--12--12--12--12--12--12--12------12--12--11--12--12--11--12--12-
4----------------------------------------------------------------------
5----------------------------------------------------------------------
6----------------------------------------------------------------------

 

Where the streets have no name

1----5-5-5-5--3-3-3-3--2-2-2-2------
2----3-3-3-3--3-3-3-3--3-3-3-3------
3----0-0-0-0--0-0-0-0--0-0-0-0------
4-----------------------------------
5-----------------------------------
6-----------------------------------

Where the streets have no name


1----5-5-5-5--3-3-3-3--2-2-2-2------
2----3-3-3-3--3-3-3-3--3-3-3-3------
3----0-0-0-0--0-0-0-0--0-0-0-0------
4-----------------------------------
5-----------------------------------
6-----------------------------------
Where the streets have no name

We're still building


1----5-5-5-5--3-3-3-2-3-3-3-2-3-2-3-2---5-5-5--3-3-2-3-2-3
2----3-3-3-3--3-3-3-3-3-3-3-3-3-3-3-3---3-3-3--3-3-3-3-3-3
3----0-0-0-0--0-0-0-0-0-0-0-0-0-0-0-0---0-0-0--0-0-0-0-0-0
4---------------------------------------------------------
5---------------------------------------------------------
6---------------------------------------------------------


Then burning down love.....


1----5-5-5-5--3-3-3-3--2-2-2-2------
2----3-3-3-3--3-3-3-3--3-3-3-3------
3----0-0-0-0--0-0-0-0--0-0-0-0------
4-----------------------------------
5-----------------------------------
6-----------------------------------

And when I go there


1----5-5-5-5--3-3-3-3--2-2-2-2------
2----3-3-3-3--3-3-3-3--3-3-3-3------
3----0-0-0-0--0-0-0-0--0-0-0-0------
4-----------------------------------
5-----------------------------------
6-----------------------------------

I go there with you

It's all...


1-X-X-X-X-X-X-X-X-X-X-X-
2-X-X-X-X-X-X-X-X-X-X-X-
3-X-X-X-X-X-X-X-X-X-X-X-
4-X-X-X-X-X-X-X-X-X-X-X-
5-X-X-X-X-X-X-X-X-X-X-X-
6-X-X-X-X-X-X-X-X-X-X-X-


...I can do

 

1---10--10--10--10--10--10--10--10--10--10--10--10--10--10--10--10--10--10--10-
2---10--10--10--10--10--10--10--10--10--10--10--10--10--10--10--10--10--10--10-
3---12--11--12--12--11--12--12--11--12--12--11--12--12--11--12--12--11--12--12-
4------------------------------------------------------------------------------
5------------------------------------------------------------------------------
6------------------------------------------------------------------------------

 

ooohhhhhhhhhoohhhhhhohoohhh....

 

1---10--10--10--10--10--10--10--10--10--10--10--10--10--10--10--10--10--10--10-
2---10--10--10--10--10--10--10--10--10--10--10--10--10--10--10--10--10--10--10-
3---12--11--12--12--11--12--12--11--12--12--11--12--12--11--12--12--11--12--12-
4------------------------------------------------------------------------------
5------------------------------------------------------------------------------
6------------------------------------------------------------------------------

 

Where the streets have no name

Where the streets have no name.....

 

1-------10------------------10-
2----------10------------10----
3-------------12--11--12-------
4------------------------------
5------------------------------
6------------------------------
    

      ...we can do


1--10-----10----10------10-----
2---10-----10-----10-----10----
3----12-----12------11----11---
4------------------------------
5------------------------------
6------------------------------





Calificar esta versión:
Aviso: Este fichero es trabajo propio de su transcriptor y representa su interpretación personal de la canción. El material contenido en esta página es para exclusivo uso privado, por lo que se prohibe su reproducción o retransmisión, así como su uso para fines comerciales.