Staring At The Sun, U2 (acordes)

Autor: RaulM642 | 41866 visualizaciones

amcddodsus2dsus4emfg


 Buen dia muchachos aqi salgo con una rolita de U2 
que me gusta mucho espero les guste.Mando salu2 a mi Novia Mia Te amo 



Intro  Am, G, F, Em] 
Tablaturas 
     1--------------------------------------------------- 
     2---------------5--------------------5-----------5-- 
     3---5---7-------------------5---7---------7--------- 
     4--------------------------------------------------- 
     5--------------------------------------------------- 
     6--------------------------------------------------- 

     Am G F Em 
     Summer stretching on the grass, summer dresses pass 
     Am G F Em 
     In the shade of a willow tree creeps a crawling over me 

     there are some harmonics in the background 

     1--------------------<12>-- 
     2-----------<12>----------- 
     3---<12>------------------- 
     4-------------------------- 
     5-------------------------- 
     6-------------------------- 
  
     Am G F Em 
     Over me and over you, stuck together with GOD's glue 
     Am G 
     It's going to get sticker, too 

     1-----------------<12>--------------<12>------------ 
     2---------<12>-------------------------------------- 
     3--------------------------<12>----------------<7>--
     4---<7>--------------------------------------------- 
     5--------------------------------------------------- 
     6--------------------------------------------------- 

     F G 
     It's been a long hot summer, let's get undercover 
     F G 
     Don't try too hard to think, don't think at all 

     chorus, electric guitar: 

     1--------------------------------------------------- 
     2---15--13--15--13-------------15--15b[17]r-----13-- 
     3---------------------12/14------------------------- 
     4--------------------------------------------------- 
     5--------------------------------------------------- 
     6--------------------------------------------------- 

     C Am 
     I'm not the only one staring at the sun 
     D Dsus4 F 
     Afraid of what you'd find if you took a look inside 
     C Am 
     Not just deaf and dumb staring at the sun 
     D Dsus4 F 
     I'm not the only one who's happy to go blind 
     Am G 
     There's an insect in your ear 
     F Em 
     If you scratch it won't disappear 
  
     1--------------------------- 
     2--------------------------- 
     3---2/42--0--2-----4---5/-- 
     4--------------------------- 
     5--------------------------- 
     6--------------------------- 

     Am G 
     It's gonna itch and burn and sting 
     F Em 
     Do you want to see what the scratching brings? 

     1---------------------------- 
     2---------------------------- 
     3---<12>--<12>--<12>--12/14-- 
     4---------------------------- 
     5---------------------------- 
     6---------------------------- 

     Am G 
     Waves that leave me out of reach 
     F Em 
     Breaking on your back like a beach 
     Am G 
     Will we ever live in peace? 
     F G 
     Cause those that can't Do often have to 
     F G 
     And those that can't Do often have to 
     C Am 
     Preach to the ones staring at the sun 
     D Dsus4 F 
     Afraid of what you'll find if you took a look inside 
     C Am 
     Not just deaf and dumb staring at the sun 
     D Dsus4 F 
     I'm not the only one who'd rather go blind 
  
     bridge: 
     Am Dsus2 Am G 
     Intransigence is all around, military still in town 
     Armour plated suits and ties 
     Daddy just won't say goodbye 
     Referee won't blow the whistle 
     GOD is good, but will He listen? 
     I'm nearly great, but there's something missing 

     F G 
     I left in the duty free though 
     F G 
     You never really belonged to me 
     C Am 
     You're not the only one staring at the sun 
     D Dsus4 F 
     Afraid of what you'd find if you stepped back inside 
     C Am 
     I'm not sucking my thumb, I'm staring at the sun 
     D Dsus4 F 
     Not the only one who's happy to go blind 

     Outro: 

     1----------------------------------------------------------
     2---5-------5---------------5-------5------5------5--------
     3-------7-----------5---7-------7--------------7------125--
     4----------------------------------------------------------
     5----------------------------------------------------------
     6----------------------------------------------------------

     1---------------------------------------------------- 
     2---------------------------------------------5--5--- 
     3---5p4-------------5--7--7--7--------5--7----------- 
     4----------7----------------------------------------- 
     5---------------------------------------------------- 
     6---------------------------------------------------- 

Asi es como va  





Calificar esta versión:
Aviso: Este fichero es trabajo propio de su transcriptor y representa su interpretación personal de la canción. El material contenido en esta página es para exclusivo uso privado, por lo que se prohibe su reproducción o retransmisión, así como su uso para fines comerciales.