Elevation, U2 (tablatura)

Autor: Gibsonaitor | 21052 visualizaciones



Elevation
U2

U2 - Elevation
Standard Tuning

Main Riff:
|---------------------------------------------------end-riff-here---|
|-------------------------------------------------------------------|
|--9--9-/--14-14---9--9--/--14--14-----------------16-16--x-x-14-14-|
|--9--9-/--14-14---9--9--/--14--14-- repeat--------16-16--x-x-14-14-|
|--7--7----0--0----7--7-----0---0------------------14-14--x-x-12-12-|
|--0--0------------0--0---------------------------------------------|

Verse Riff: (palm muted / deadened)
|------------------------------------------------------------------|
|------------------------------------------------------------------|
|--9p7-9--9p7-9p7--9-----------------------------------------------|
|---------------------9--------------------------------------------|
|------------------------------------------------------------------|
|------------------------------------------------------------------|

tabbed by zipztabs.com
Enjoy!




ELEVATION by U2
From the album "All That You Can't Leave Behind"

INTRO:
not sure if it's a guitar with fx, but it alternates 
between E (5th str. 7th fret) and A (6th str. 5th fret)
enter guitar:
 E5     A5
---------------------
--------10-10-10-10--
-9--9---9--9--9--9---
-9--9---7--7--7--7---
-7--7----------------
---------------------
(repeat 7x)
       A5
--------------------
-------10-10-10-10--
-------9--9--9--9---
-9--9--7--7--7--7---
-------0--0--0--0---
-7--7---------------

VERSE:
intro instrument repeats this on low E(6th) string:
e--7----5--5--5----0---0--0--0----

after 4x, enter acoustic:
e-----------------------------------------------
b--5p3-5---3-5-5p3-5p3-0----5p3-5---5--3---3----

e-----------------------------------------------
b--5p3-5---3-5p3-5---0----5p3-5---5--3---0------

e-----------------------------------------------
b--5p3-5---3--5p3--5--0----5p3-5---5--3---3-----

e-----------------------------------------------
b--5p3-5---5p3-5p3-5--3----5p3-5p3--5--0--------

(this is the figure that the acoustic always plays)

solo guitar at end of tune (with envelope filter?)
--------------------
--------------------
--------------------
-9--9--8--8--7--7---
--------------------
-7--7--6--6--5--5---
(repeat)

...that's all the parts





Calificar esta versión:
Aviso: Este fichero es trabajo propio de su transcriptor y representa su interpretación personal de la canción. El material contenido en esta página es para exclusivo uso privado, por lo que se prohibe su reproducción o retransmisión, así como su uso para fines comerciales.