Beautiful Day, U2 (tablatura)

Autor: metaliko | 27132 visualizaciones



hey banda aka kon otra super rola a ver k les parece
INTRO

e-0---2---2-----3---------2--0----
b-2---3---3-----3-----2---3--2----
g-2---4---2-----0-----3------2----
d-2---4---0-----0-----0------2----
a-0---2---------2------------0----
e---------------3-----------------

este riff tambien acompaña los versos

RIFF 2

ITS THE BEAUTIFUL DYA

e--------------------------------------
b--------------------------------------
g--------------------------------------
d---------7------------7---------------
a-7---9---5-----5------5------7--------
e-5---7---------3-------------5--------

SE REPITE EL RIFF 1

SE REPITE EL RIFF 2

RIFF 3
TOUCH ME...
e-9-----9--10----10----10----10----10----10-9--10--9----9-
b---12-----------------------------------------------12---
g-------------12----12----12----12----12------------------
d---------------------------------------------------------
a---------------------------------------------------------
e---------------------------------------------------------

e----9----9----9----9-
b-12---12---12---12---
g---------------------
d---------------------
a---------------------
e---------------------

SE REPITE EL RIFF 2
Y TERMINA CON EL RIFF 3

ps esa es toda la rola espero les guste 
saludos a mi banda y fans 
papas





Calificar esta versión:
Aviso: Este fichero es trabajo propio de su transcriptor y representa su interpretación personal de la canción. El material contenido en esta página es para exclusivo uso privado, por lo que se prohibe su reproducción o retransmisión, así como su uso para fines comerciales.