The Price, Twisted Sister (tablatura)

Autor: napm | 34962 visualizaciones

****NAPM****

Intro/Chorus Pattern (play twice)

 F        C         F       C/E        F       C
|------------------|------------------|-----------------|
|------------------|------------------|-----------------|
|---------5--------|--------5---------|--------5--------|
|3--------5--------|3-------5---------|3-------5--------|
|3--------3--------|3-------3---------|3-------3--------|
|1-----------------|1-------0---------|1----------------|

 Dm
|------------------|
|------------------|
|7-----------------|
|7-----------------|
|5-----------------|
|------------------|



Verse Pattern (play four times)

 Bb       C         Dm
|------------------|---1----3p1---0---|
|---3---------1----|-------2--------2-|
|-----3---------0--|-3-----------3----|
|-3---------2------|0-----------------|
|1--------3--------|------------------|
|------------------|------------------|


Pre-Chorus Pattern (play once)

 F       C          C       Dm     C   Bb        F   C
|------------------|------------------|-----------------|
|------------------|------------------|-----------------|
|--------5---------|5-------7-----7-5-|3-------------5--|
|3-------5---------|5-------7-----7-5-|3---------3---5--|
|3-------3---------|3-------5-----5-3-|1---------3---3--|
|1-----------------|------------------|----------1------|

 Dm
|------------------|
|------------------|
|7-----------------|
|7-----------------|
|5-----------------|
|------------------|




Opening Solo

     1 1/2                                 1 1/2
     step bend                              /
 F   /    C          F      C/E        F   /   C
|---10----8------8-|10--8-------------|---10--p8-----8--|
|-------------10---|--------10-p8-h10-|-----------10--10|
|------------------|------------------|-----------------|
|------------------|------------------|-----------------|
|------------------|------------------|-----------------|
|------------------|------------------|-----------------|


                      (1 1/2)
                        /
 Dm                 F  /     C         F       C/E
|8--13----10-------|--10-----8------8-|-----------------|
|------------------|-------------10---|10-p8-h10--------|
|------------------|------------------|-----------------|
|------------------|------------------|-----------------|
|------------------|------------------|-----------------|
|------------------|------------------|-----------------|

             sl.
 F        C         Dm
|---10----8--10-13-|-------15-15--15--|
|-----------/------|------------------|
|------------------|------------------|
|------------------|------------------|
|------------------|------------------|
|------------------|------------------|


*********NAPM********
Calificar esta versión:
Aviso: Este fichero es trabajo propio de su transcriptor y representa su interpretación personal de la canción. El material contenido en esta página es para exclusivo uso privado, por lo que se prohibe su reproducción o retransmisión, así como su uso para fines comerciales.