The Dnieper Rapids, Turisas (tablatura)

Autor: Ezezan | 28294 visualizaciones



Primero que todo la canción se toca con la 6ta cuerda un tono más abajo SOLO la 6ta.

INTRO
4 ------------7------------------------------
5 --5---------5--5-----5-3-5-6-5-3-----------
6 --5------------5-----5-3-5-6-5-3-----------

4 ---5-xxxxx6-----------------------7-xxxxx6------------------
5 ---3-xxxxx4--5-xx-5--5-3-5-6-5-3--5-xxxxx4--5-xx5-3-5-6-5-3-X2
6 -------------5-xx-5--5-3-5-6-5-3------------5-xx5-3-5-6-5-3-

INTER.
4 --5-------------3--5-6-3-5-5-------------3--5-6-3-5--
5 --3---------5-6----3-4-1-3-3---------5-6----3-4-1-3-3

ESTROFAS
3 ------------------------2-0-------------------------
4 -0-1-----00-00-0-1----0-----1-0-1----00-00---------- X4
5 --------------------------------------------4--1----
6 -------00-----------00-------------00---------------

SOLO VIOLíN
1 --------------------16--15----------------------------------
2 -----------12--13-----------14--13--------------------------
3 ---13--12---------------------------------------------------





Calificar esta versión:
Aviso: Este fichero es trabajo propio de su transcriptor y representa su interpretación personal de la canción. El material contenido en esta página es para exclusivo uso privado, por lo que se prohibe su reproducción o retransmisión, así como su uso para fines comerciales.